  0
SECTION
  2
HEADER
  9
$ACADVER
  1
AC1015
  9
$ACADMAINTVER
 70
     6
  9
$DWGCODEPAGE
  3
ANSI_1252
  9
$INSBASE
 10
0.0
 20
0.0
 30
0.0
  9
$EXTMIN
 10
0.0
 20
0.0
 30
0.0
  9
$EXTMAX
 10
85.0
 20
55.0
 30
0.0
  9
$LIMMIN
 10
0.0
 20
0.0
  9
$LIMMAX
 10
85.0
 20
55.0
  9
$ORTHOMODE
 70
     0
  9
$REGENMODE
 70
     1
  9
$FILLMODE
 70
     1
  9
$QTEXTMODE
 70
     0
  9
$MIRRTEXT
 70
     1
  9
$LTSCALE
 40
1.0
  9
$ATTMODE
 70
     1
  9
$TEXTSIZE
 40
0.1666666667
  9
$TRACEWID
 40
0.05
  9
$TEXTSTYLE
  7
Standard
  9
$CLAYER
  8
0
  9
$CELTYPE
  6
ByLayer
  9
$CECOLOR
 62
   256
  9
$CELTSCALE
 40
1.0
  9
$DISPSILH
 70
     0
  9
$DIMSCALE
 40
1.0
  9
$DIMASZ
 40
0.09
  9
$DIMEXO
 40
0.05
  9
$DIMDLI
 40
0.38
  9
$DIMRND
 40
0.0
  9
$DIMDLE
 40
0.0
  9
$DIMEXE
 40
0.0625
  9
$DIMTP
 40
0.0
  9
$DIMTM
 40
0.0
  9
$DIMTXT
 40
0.1666666667
  9
$DIMCEN
 40
0.09
  9
$DIMTSZ
 40
0.0
  9
$DIMTOL
 70
     0
  9
$DIMLIM
 70
     0
  9
$DIMTIH
 70
     1
  9
$DIMTOH
 70
     1
  9
$DIMSE1
 70
     0
  9
$DIMSE2
 70
     0
  9
$DIMTAD
 70
     0
  9
$DIMZIN
 70
     0
  9
$DIMBLK
  1

  9
$DIMASO
 70
     1
  9
$DIMSHO
 70
     1
  9
$DIMPOST
  1

  9
$DIMAPOST
  1

  9
$DIMALT
 70
     0
  9
$DIMALTD
 70
     2
  9
$DIMALTF
 40
25.4
  9
$DIMLFAC
 40
24.0
  9
$DIMTOFL
 70
     0
  9
$DIMTVP
 40
0.0
  9
$DIMTIX
 70
     0
  9
$DIMSOXD
 70
     0
  9
$DIMSAH
 70
     0
  9
$DIMBLK1
  1

  9
$DIMBLK2
  1

  9
$DIMSTYLE
  2
Standard
  9
$DIMCLRD
 70
     0
  9
$DIMCLRE
 70
     0
  9
$DIMCLRT
 70
     0
  9
$DIMTFAC
 40
1.0
  9
$DIMGAP
 40
0.06
  9
$DIMJUST
 70
     0
  9
$DIMSD1
 70
     0
  9
$DIMSD2
 70
     0
  9
$DIMTOLJ
 70
     1
  9
$DIMTZIN
 70
     0
  9
$DIMALTZ
 70
     0
  9
$DIMALTTZ
 70
     0
  9
$DIMUPT
 70
     0
  9
$DIMDEC
 70
     2
  9
$DIMTDEC
 70
     2
  9
$DIMALTU
 70
     2
  9
$DIMALTTD
 70
     2
  9
$DIMTXSTY
  7
Standard
  9
$DIMAUNIT
 70
     0
  9
$DIMADEC
 70
     0
  9
$DIMALTRND
 40
0.0
  9
$DIMAZIN
 70
     0
  9
$DIMDSEP
 70
    46
  9
$DIMATFIT
 70
     3
  9
$DIMFRAC
 70
     0
  9
$DIMLDRBLK
  1

  9
$DIMLUNIT
 70
     2
  9
$DIMLWD
 70
    -2
  9
$DIMLWE
 70
    -2
  9
$DIMTMOVE
 70
     0
  9
$LUNITS
 70
     2
  9
$LUPREC
 70
     2
  9
$SKETCHINC
 40
0.1
  9
$FILLETRAD
 40
0.5
  9
$AUNITS
 70
     0
  9
$AUPREC
 70
     0
  9
$MENU
  1
.
  9
$ELEVATION
 40
0.0
  9
$PELEVATION
 40
0.0
  9
$THICKNESS
 40
0.0
  9
$LIMCHECK
 70
     0
  9
$CHAMFERA
 40
0.5
  9
$CHAMFERB
 40
0.5
  9
$CHAMFERC
 40
1.0
  9
$CHAMFERD
 40
0.0
  9
$SKPOLY
 70
     0
  9
$TDCREATE
 40
2455464.405650937
  9
$TDUCREATE
 40
2455464.613984271
  9
$TDUPDATE
 40
2455464.405650949
  9
$TDUUPDATE
 40
2455464.613984283
  9
$TDINDWG
 40
0.0000000116
  9
$TDUSRTIMER
 40
0.0000000116
  9
$USRTIMER
 70
     1
  9
$ANGBASE
 50
0.0
  9
$ANGDIR
 70
     0
  9
$PDMODE
 70
     0
  9
$PDSIZE
 40
-1.0
  9
$PLINEWID
 40
0.0
  9
$SPLFRAME
 70
     0
  9
$SPLINETYPE
 70
     6
  9
$SPLINESEGS
 70
     8
  9
$HANDSEED
  5
198
  9
$SURFTAB1
 70
     6
  9
$SURFTAB2
 70
     6
  9
$SURFTYPE
 70
     6
  9
$SURFU
 70
     6
  9
$SURFV
 70
     6
  9
$UCSBASE
  2

  9
$UCSNAME
  2

  9
$UCSORG
 10
0.0
 20
0.0
 30
0.0
  9
$UCSXDIR
 10
1.0
 20
0.0
 30
0.0
  9
$UCSYDIR
 10
0.0
 20
1.0
 30
0.0
  9
$UCSORTHOREF
  2

  9
$UCSORTHOVIEW
 70
     0
  9
$UCSORGTOP
 10
0.0
 20
0.0
 30
0.0
  9
$UCSORGBOTTOM
 10
0.0
 20
0.0
 30
0.0
  9
$UCSORGLEFT
 10
0.0
 20
0.0
 30
0.0
  9
$UCSORGRIGHT
 10
0.0
 20
0.0
 30
0.0
  9
$UCSORGFRONT
 10
0.0
 20
0.0
 30
0.0
  9
$UCSORGBACK
 10
0.0
 20
0.0
 30
0.0
  9
$PUCSBASE
  2

  9
$PUCSNAME
  2

  9
$PUCSORG
 10
0.0
 20
0.0
 30
0.0
  9
$PUCSXDIR
 10
1.0
 20
0.0
 30
0.0
  9
$PUCSYDIR
 10
0.0
 20
1.0
 30
0.0
  9
$PUCSORTHOREF
  2

  9
$PUCSORTHOVIEW
 70
     0
  9
$PUCSORGTOP
 10
0.0
 20
0.0
 30
0.0
  9
$PUCSORGBOTTOM
 10
0.0
 20
0.0
 30
0.0
  9
$PUCSORGLEFT
 10
0.0
 20
0.0
 30
0.0
  9
$PUCSORGRIGHT
 10
0.0
 20
0.0
 30
0.0
  9
$PUCSORGFRONT
 10
0.0
 20
0.0
 30
0.0
  9
$PUCSORGBACK
 10
0.0
 20
0.0
 30
0.0
  9
$USERI1
 70
     0
  9
$USERI2
 70
     0
  9
$USERI3
 70
     0
  9
$USERI4
 70
     0
  9
$USERI5
 70
     0
  9
$USERR1
 40
0.0
  9
$USERR2
 40
0.0
  9
$USERR3
 40
0.0
  9
$USERR4
 40
0.0
  9
$USERR5
 40
0.0
  9
$WORLDVIEW
 70
     1
  9
$SHADEDGE
 70
     3
  9
$SHADEDIF
 70
    70
  9
$TILEMODE
 70
     1
  9
$MAXACTVP
 70
    64
  9
$PINSBASE
 10
0.0
 20
0.0
 30
0.0
  9
$PLIMCHECK
 70
     0
  9
$PEXTMIN
 10
1.0000000000E+20
 20
1.0000000000E+20
 30
1.0000000000E+20
  9
$PEXTMAX
 10
-1.0000000000E+20
 20
-1.0000000000E+20
 30
-1.0000000000E+20
  9
$PLIMMIN
 10
0.0
 20
0.0
  9
$PLIMMAX
 10
12.0
 20
9.0
  9
$UNITMODE
 70
     0
  9
$VISRETAIN
 70
     1
  9
$PLINEGEN
 70
     0
  9
$PSLTSCALE
 70
     1
  9
$TREEDEPTH
 70
  3020
  9
$CMLSTYLE
  2
Standard
  9
$CMLJUST
 70
     0
  9
$CMLSCALE
 40
1.0
  9
$PROXYGRAPHICS
 70
     1
  9
$MEASUREMENT
 70
     0
  9
$CELWEIGHT
370
    -1
  9
$ENDCAPS
280
     0
  9
$JOINSTYLE
280
     0
  9
$LWDISPLAY
290
     1
  9
$INSUNITS
 70
     1
  9
$HYPERLINKBASE
  1

  9
$STYLESHEET
  1

  9
$XEDIT
290
     1
  9
$CEPSNTYPE
380
     0
  9
$PSTYLEMODE
290
     1
  9
$FINGERPRINTGUID
  2
{4A6C1A8D-4514-4F57-8AF1-078376B5EC29}
  9
$VERSIONGUID
  2
{FAEB1C32-E019-11D5-929B-00C0DF256EC4}
  9
$EXTNAMES
290
     1
  9
$PSVPSCALE
 40
0.0
  9
$OLESTARTUP
290
     0
  0
ENDSEC
  0
SECTION
  2
CLASSES
  0
CLASS
  1
ACDBDICTIONARYWDFLT
  2
AcDbDictionaryWithDefault
  3
ObjectDBX Classes
 90
        0
280
     0
281
     0
  0
CLASS
  1
VISUALSTYLE
  2
AcDbVisualStyle
  3
ObjectDBX Classes
 90
     4095
280
     0
281
     0
  0
CLASS
  1
MATERIAL
  2
AcDbMaterial
  3
ObjectDBX Classes
 90
     1153
280
     0
281
     0
  0
CLASS
  1
SCALE
  2
AcDbScale
  3
ObjectDBX Classes
 90
     1153
280
     0
281
     0
  0
CLASS
  1
DICTIONARYVAR
  2
AcDbDictionaryVar
  3
ObjectDBX Classes
 90
        0
280
     0
281
     0
  0
CLASS
  1
ACDBPLACEHOLDER
  2
AcDbPlaceHolder
  3
ObjectDBX Classes
 90
        0
280
     0
281
     0
  0
CLASS
  1
LAYOUT
  2
AcDbLayout
  3
ObjectDBX Classes
 90
        0
280
     0
281
     0
  0
ENDSEC
  0
SECTION
  2
TABLES
  0
TABLE
  2
VPORT
  5
8
330
0
100
AcDbSymbolTable
 70
     1
  0
VPORT
  5
29
330
8
100
AcDbSymbolTableRecord
100
AcDbViewportTableRecord
  2
*Active
 70
     0
 10
0.0
 20
0.0
 11
1.0
 21
1.0
 12
42.5
 22
27.5
 13
0.0
 23
0.0
 14
0.5
 24
0.5
 15
0.5
 25
0.5
 16
0.0
 26
0.0
 36
1.0
 17
0.0
 27
0.0
 37
0.0
 40
55.0
 41
1.5454545455
 42
50.0
 43
0.0
 44
0.0
 50
0.0
 51
0.0
 71
     0
 72
  2000
 73
     1
 74
     3
 75
     0
 76
     0
 77
     0
 78
     0
281
     0
 65
     1
110
0.0
120
0.0
130
0.0
111
1.0
121
0.0
131
0.0
112
0.0
122
1.0
132
0.0
 79
     0
146
0.0
  0
ENDTAB
  0
TABLE
  2
LTYPE
  5
5
330
0
100
AcDbSymbolTable
 70
     6
  0
LTYPE
  5
14
330
5
100
AcDbSymbolTableRecord
100
AcDbLinetypeTableRecord
  2
ByBlock
 70
     0
  3

 72
    65
 73
     0
 40
0.0
  0
LTYPE
  5
15
330
5
100
AcDbSymbolTableRecord
100
AcDbLinetypeTableRecord
  2
ByLayer
 70
     0
  3

 72
    65
 73
     0
 40
0.0
  0
LTYPE
  5
16
330
5
100
AcDbSymbolTableRecord
100
AcDbLinetypeTableRecord
  2
Continuous
 70
     0
  3
Solid line
 72
    65
 73
     0
 40
0.0
  0
LTYPE
  5
3F
330
5
100
AcDbSymbolTableRecord
100
AcDbLinetypeTableRecord
  2
HIDDEN
 70
     0
  3
Hidden __ __ __ __ __ __ __ __ __ __ __ __ __ __
 72
    65
 73
     2
 40
0.075
 49
0.05
 74
     0
 49
-0.025
 74
     0
  0
LTYPE
  5
40
330
5
100
AcDbSymbolTableRecord
100
AcDbLinetypeTableRecord
  2
PHANTOM
 70
     0
  3
Phantom ______  __  __  ______  __  __  ______
 72
    65
 73
     6
 40
0.5
 49
0.25
 74
     0
 49
-0.05
 74
     0
 49
0.05
 74
     0
 49
-0.05
 74
     0
 49
0.05
 74
     0
 49
-0.05
 74
     0
  0
LTYPE
  5
41
330
5
100
AcDbSymbolTableRecord
100
AcDbLinetypeTableRecord
  2
CENTER
 70
     0
  3
Center ____ _ ____ _ ____ _ ____ _ ____ _ ____
 72
    65
 73
     4
 40
0.4
 49
0.25
 74
     0
 49
-0.05
 74
     0
 49
0.05
 74
     0
 49
-0.05
 74
     0
  0
LTYPE
  5
42
330
5
100
AcDbSymbolTableRecord
100
AcDbLinetypeTableRecord
  2
CENTERX2
 70
     0
  3
Center (2x) ________  __  ________  __  _____
 72
    65
 73
     4
 40
0.8
 49
0.5
 74
     0
 49
-0.1
 74
     0
 49
0.1
 74
     0
 49
-0.1
 74
     0
  0
LTYPE
  5
43
330
5
100
AcDbSymbolTableRecord
100
AcDbLinetypeTableRecord
  2
DOT2
 70
     0
  3
Dot (.5x) ........................................
 72
    65
 73
     2
 40
0.025
 49
0.0
 74
     0
 49
-0.025
 74
     0
  0
ENDTAB
  0
TABLE
  2
LAYER
  5
2
330
0
100
AcDbSymbolTable
 70
     2
  0
LAYER
  5
10
330
2
100
AcDbSymbolTableRecord
100
AcDbLayerTableRecord
  2
0
 70
     0
 62
     7
  6
Continuous
370
    -3
390
F
  0
LAYER
  5
44
330
2
100
AcDbSymbolTableRecord
100
AcDbLayerTableRecord
  2
FORMAT
 70
     0
 62
     7
  6
Continuous
370
    -3
390
F
  0
ENDTAB
  0
TABLE
  2
STYLE
  5
3
330
0
100
AcDbSymbolTable
 70
     3
  0
STYLE
  5
11
330
3
100
AcDbSymbolTableRecord
100
AcDbTextStyleTableRecord
  2
Standard
 70
     0
 40
0.0
 41
1.0
 50
0.0
 71
     0
 42
0.2
  3
txt
  4

  0
STYLE
  5
4B
330
3
100
AcDbSymbolTableRecord
100
AcDbTextStyleTableRecord
  2
SLDTEXTSTYLE0
 70
     0
 40
0.0
 41
0.96
 50
0.0
 71
     0
 42
0.2
  3
TXT
  4

  0
STYLE
  5
70
330
3
100
AcDbSymbolTableRecord
100
AcDbTextStyleTableRecord
  2
SLDTEXTSTYLE1
 70
     0
 40
0.0
 41
0.8942857143
 50
0.0
 71
     0
 42
0.2
  3
TXT
  4

  0
ENDTAB
  0
TABLE
  2
VIEW
  5
6
330
0
100
AcDbSymbolTable
 70
     0
  0
ENDTAB
  0
TABLE
  2
UCS
  5
7
330
0
100
AcDbSymbolTable
 70
     0
  0
ENDTAB
  0
TABLE
  2
APPID
  5
9
330
0
100
AcDbSymbolTable
 70
     1
  0
APPID
  5
12
330
9
100
AcDbSymbolTableRecord
100
AcDbRegAppTableRecord
  2
ACAD
 70
     0
  0
ENDTAB
  0
TABLE
  2
DIMSTYLE
  5
A
330
0
100
AcDbSymbolTable
 70
     1
100
AcDbDimStyleTable
  0
DIMSTYLE
105
27
330
A
100
AcDbSymbolTableRecord
100
AcDbDimStyleTableRecord
  2
Standard
 70
     0
340
11
  0
ENDTAB
  0
TABLE
  2
BLOCK_RECORD
  5
1
330
0
100
AcDbSymbolTable
 70
     3
  0
BLOCK_RECORD
  5
1F
330
1
100
AcDbSymbolTableRecord
100
AcDbBlockTableRecord
  2
*Model_Space
340
22
  0
BLOCK_RECORD
  5
1B
330
1
100
AcDbSymbolTableRecord
100
AcDbBlockTableRecord
  2
*Paper_Space
340
1E
  0
BLOCK_RECORD
  5
23
330
1
100
AcDbSymbolTableRecord
100
AcDbBlockTableRecord
  2
*Paper_Space0
340
26
  0
BLOCK_RECORD
  5
45
330
1
100
AcDbSymbolTableRecord
100
AcDbBlockTableRecord
  2
SW_NOTE_0
340
0
102
{BLKREFS
331
73
102
}
  0
BLOCK_RECORD
  5
48
330
1
100
AcDbSymbolTableRecord
100
AcDbBlockTableRecord
  2
SW_NOTE_0_1
340
0
102
{BLKREFS
331
72
102
}
  0
ENDTAB
  0
ENDSEC
  0
SECTION
  2
BLOCKS
  0
BLOCK
  5
20
330
1F
100
AcDbEntity
  8
0
100
AcDbBlockBegin
  2
*Model_Space
 70
     0
 10
0.0
 20
0.0
 30
0.0
  3
*Model_Space
  1

  0
ENDBLK
  5
21
330
1F
100
AcDbEntity
  8
0
100
AcDbBlockEnd
  0
BLOCK
  5
1C
330
1B
100
AcDbEntity
 67
     1
  8
0
100
AcDbBlockBegin
  2
*Paper_Space
 70
     0
 10
0.0
 20
0.0
 30
0.0
  3
*Paper_Space
  1

  0
ENDBLK
  5
1D
330
1B
100
AcDbEntity
 67
     1
  8
0
100
AcDbBlockEnd
  0
BLOCK
  5
24
330
23
100
AcDbEntity
  8
0
100
AcDbBlockBegin
  2
*Paper_Space0
 70
     0
 10
0.0
 20
0.0
 30
0.0
  3
*Paper_Space0
  1

  0
ENDBLK
  5
25
330
23
100
AcDbEntity
  8
0
100
AcDbBlockEnd
  0
BLOCK
  5
46
330
45
100
AcDbEntity
  8
0
100
AcDbBlockBegin
  2
SW_NOTE_0
 70
     0
 10
0.0
 20
0.0
 30
0.0
  3
SW_NOTE_0
  1

  0
INSERT
  5
72
330
45
100
AcDbEntity
  8
FORMAT
 62
     7
100
AcDbBlockReference
  2
SW_NOTE_0_1
 10
6.1082780987
 20
1.6757404968
 30
0.0
  0
ENDBLK
  5
47
330
45
100
AcDbEntity
  8
0
100
AcDbBlockEnd
  0
BLOCK
  5
49
330
48
100
AcDbEntity
  8
0
100
AcDbBlockBegin
  2
SW_NOTE_0_1
 70
     0
 10
0.0
 20
0.0
 30
0.0
  3
SW_NOTE_0_1
  1

  0
MTEXT
  5
6E
330
48
100
AcDbEntity
  8
FORMAT
 62
     0
100
AcDbMText
 10
0.0
 20
1.7456125643
 30
0.0
 40
1.3541666667
 41
0.0
 71
     1
 72
     1
  1
Titus
  7
SLDTEXTSTYLE0
 73
     1
 44
1.0
  0
MTEXT
  5
6F
330
48
100
AcDbEntity
  8
FORMAT
 62
     0
100
AcDbMText
 10
0.0
 20
-1.8654984665
 30
0.0
 40
1.3541666667
 41
0.0
 71
     1
 72
     1
  1
MDV
  7
SLDTEXTSTYLE0
 73
     1
 44
1.0
  0
MTEXT
  5
71
330
48
100
AcDbEntity
  8
FORMAT
 62
     0
100
AcDbMText
 10
0.0
 20
-5.4766094973
 30
0.0
 40
1.3541666667
 41
0.0
 71
     1
 72
     1
  1
Size 14
  7
SLDTEXTSTYLE1
 73
     1
 44
1.0
  0
ENDBLK
  5
4A
330
48
100
AcDbEntity
  8
0
100
AcDbBlockEnd
  0
ENDSEC
  0
SECTION
  2
ENTITIES
  0
INSERT
  5
73
330
1F
100
AcDbEntity
  8
FORMAT
100
AcDbBlockReference
  2
SW_NOTE_0
 10
28.3586080124
 20
28.3958566478
 30
0.0
  0
ARC
  5
74
330
1F
100
AcDbEntity
  8
0
  6
Continuous
 62
     7
370
    30
100
AcDbCircle
 10
6.7886713624
 20
11.9534616807
 30
0.0
 40
0.1250000000000018
100
AcDbArc
 50
180.0
 51
284.8328479208
  0
LINE
  5
75
330
1F
100
AcDbEntity
  8
0
  6
Continuous
 62
     7
370
    30
100
AcDbLine
 10
3.5076722715
 20
11.9534613044
 30
0.0
 11
6.6636725065
 21
11.9534613044
 31
0.0
  0
ARC
  5
76
330
1F
100
AcDbEntity
  8
0
  6
Continuous
 62
     7
370
    30
100
AcDbCircle
 10
6.7886713624
 20
42.7024616807
 30
0.0
 40
0.1250000000000018
100
AcDbArc
 50
75.1671520792
 51
180.0
  0
LINE
  5
77
330
1F
100
AcDbEntity
  8
0
  6
Continuous
 62
     7
370
    30
100
AcDbLine
 10
6.6636725065
 20
42.7024615027
 30
0.0
 11
3.5076722715
 21
42.7024615027
 31
0.0
  0
LINE
  5
78
330
1F
100
AcDbEntity
  8
0
  6
Continuous
 62
     7
370
    30
100
AcDbLine
 10
6.202670472
 20
35.1832223389
 30
0.0
 11
6.202670472
 21
35.5946064399
 31
0.0
  0
LINE
  5
79
330
1F
100
AcDbEntity
  8
0
  6
Continuous
 62
     7
370
    30
100
AcDbLine
 10
6.202670472
 20
36.3445701496
 30
0.0
 11
6.202670472
 21
35.9332570345
 31
0.0
  0
LWPOLYLINE
  5
7A
330
1F
100
AcDbEntity
  8
0
  6
Continuous
 62
     7
370
    30
100
AcDbPolyline
 90
        3
 70
   128
 43
0.0
 10
6.0421087002
 20
23.7952731602
 10
6.0721832327
 20
23.8167610453
 10
6.1126721517
 20
23.8321682006
  0
LINE
  5
7B
330
1F
100
AcDbEntity
  8
0
  6
Continuous
 62
     7
370
    30
100
AcDbLine
 10
6.0926717427
 20
35.1777124292
 30
0.0
 11
6.0926717427
 21
35.6032057006
 31
0.0
  0
LWPOLYLINE
  5
7C
330
1F
100
AcDbEntity
  8
0
  6
Continuous
 62
     7
370
    30
100
AcDbPolyline
 90
        3
 70
   128
 43
0.0
 10
6.1126721517
 20
40.7061681907
 10
6.0721832327
 20
40.6907613287
 10
6.0417801706
 20
40.6689587006
  0
LINE
  5
7D
330
1F
100
AcDbEntity
  8
0
  6
Continuous
 62
     7
370
    30
100
AcDbLine
 10
6.0926717427
 20
36.353252716
 30
0.0
 11
6.0926717427
 21
35.9277142718
 31
0.0
  0
LWPOLYLINE
  5
7E
330
1F
100
AcDbEntity
  8
0
  6
Continuous
 62
     7
370
    30
100
AcDbPolyline
 90
        8
 70
   128
 43
0.0
 10
6.132670214
 20
30.8392557741
 10
6.1087532636
 20
30.8426196819
 10
6.0884782978
 20
30.8521998379
 10
6.074928801
 20
30.8665378056
 10
6.0701721626
 20
30.8834500369
 10
6.074928801
 20
30.9003622682
 10
6.0884782978
 20
30.9147002359
 10
6.1056486595
 20
30.9233000833
  0
LWPOLYLINE
  5
7F
330
1F
100
AcDbEntity
  8
0
  6
Continuous
 62
     7
370
    30
100
AcDbPolyline
 90
        8
 70
   128
 43
0.0
 10
6.1612757502
 20
30.9227445163
 10
6.1768644768
 20
30.9147002359
 10
6.1904139736
 20
30.9003622682
 10
6.195170612
 20
30.8834500369
 10
6.1904139736
 20
30.8665378056
 10
6.1768644768
 20
30.8521998379
 10
6.156589511
 20
30.8426196819
 10
6.132670214
 20
30.8392557741
  0
LINE
  5
80
330
1F
100
AcDbEntity
  8
0
  6
Continuous
 62
     7
370
    30
100
AcDbLine
 10
6.1126721517
 20
40.7024100475
 30
0.0
 11
6.0996248357
 21
40.7024100475
 31
0.0
  0
LINE
  5
81
330
1F
100
AcDbEntity
  8
0
  6
Continuous
 62
     7
370
    30
100
AcDbLine
 10
6.1526706229
 20
40.7024100475
 30
0.0
 11
6.1826724097
 21
40.7024100475
 31
0.0
  0
ARC
  5
82
330
1F
100
AcDbEntity
  8
0
  6
Continuous
 62
     7
370
    30
100
AcDbCircle
 10
6.1327111324
 20
40.5827260248
 30
0.0
 40
0.0679464280060296
100
AcDbArc
 50
32.2140061533
 51
148.2036898619
  0
LINE
  5
83
330
1F
100
AcDbEntity
  8
0
  6
Continuous
 62
     7
370
    30
100
AcDbLine
 10
6.1526706229
 20
40.7024100475
 30
0.0
 11
6.1526706229
 21
40.7099380672
 31
0.0
  0
LINE
  5
84
330
1F
100
AcDbEntity
  8
0
  6
Continuous
 62
     7
370
    30
100
AcDbLine
 10
6.1126721517
 20
40.7024100475
 30
0.0
 11
6.1126721517
 21
40.710759391
 31
0.0
  0
LINE
  5
85
330
1F
100
AcDbEntity
  8
0
  6
Continuous
 62
     7
370
    30
100
AcDbLine
 10
6.1826724097
 20
35.602822025
 30
0.0
 11
6.1826724097
 21
35.1795956075
 31
0.0
  0
LINE
  5
86
330
1F
100
AcDbEntity
  8
0
  6
Continuous
 62
     7
370
    30
100
AcDbLine
 10
6.1826724097
 20
36.3527434952
 30
0.0
 11
6.1826724097
 21
35.9296197432
 31
0.0
  0
LWPOLYLINE
  5
87
330
1F
100
AcDbEntity
  8
0
  6
Continuous
 62
     7
370
    30
100
AcDbPolyline
 90
       16
 70
   128
 43
0.0
 10
6.1043228081
 20
14.0488367785
 10
6.0884782978
 20
14.0406998058
 10
6.074928801
 20
14.0263618381
 10
6.0701721626
 20
14.0094496068
 10
6.074928801
 20
13.9925373755
 10
6.0884782978
 20
13.9782005812
 10
6.1087532636
 20
13.9686204252
 10
6.132670214
 20
13.965255344
 10
6.156589511
 20
13.9686204252
 10
6.1768644768
 20
13.9782005812
 10
6.1904139736
 20
13.9925373755
 10
6.195170612
 20
14.0094496068
 10
6.1904139736
 20
14.0263618381
 10
6.1768644768
 20
14.0406998058
 10
6.156589511
 20
14.0502799618
 10
6.1544329492
 20
14.0508783549
  0
LINE
  5
88
330
1F
100
AcDbEntity
  8
0
  6
Continuous
 62
     7
370
    30
100
AcDbLine
 10
6.1526706229
 20
23.828410204
 30
0.0
 11
6.1826724097
 21
23.828410204
 31
0.0
  0
LINE
  5
89
330
1F
100
AcDbEntity
  8
0
  6
Continuous
 62
     7
370
    30
100
AcDbLine
 10
6.1126721517
 20
23.828410204
 30
0.0
 11
6.0996248357
 21
23.828410204
 31
0.0
  0
ARC
  5
8A
330
1F
100
AcDbEntity
  8
0
  6
Continuous
 62
     7
370
    30
100
AcDbCircle
 10
6.1267208124
 20
23.7159876815
 30
0.0
 40
0.0591176276371769
100
AcDbArc
 50
84.22416564
 51
151.0041786946
  0
ARC
  5
8B
330
1F
100
AcDbEntity
  8
0
  6
Continuous
 62
     7
370
    30
100
AcDbCircle
 10
6.1386128452
 20
23.7159612185
 30
0.0
 40
0.0591432756345262
100
AcDbArc
 50
29.0505248252
 51
95.7667287727
  0
LINE
  5
8C
330
1F
100
AcDbEntity
  8
0
  6
Continuous
 62
     7
370
    30
100
AcDbLine
 10
6.1126721517
 20
23.828410204
 30
0.0
 11
6.1126721517
 21
23.8367592542
 31
0.0
  0
LINE
  5
8D
330
1F
100
AcDbEntity
  8
0
  6
Continuous
 62
     7
370
    30
100
AcDbLine
 10
6.1526706229
 20
23.828410204
 30
0.0
 11
6.1526706229
 21
23.8359379304
 31
0.0
  0
LINE
  5
8E
330
1F
100
AcDbEntity
  8
0
  6
Continuous
 62
     7
370
    30
100
AcDbLine
 10
72.6376719692
 20
21.0089617879
 30
0.0
 11
72.6376719692
 21
33.5089618935
 31
0.0
  0
LINE
  5
8F
330
1F
100
AcDbEntity
  8
0
  6
Continuous
 62
     7
370
    30
100
AcDbLine
 10
72.6376719692
 20
21.0089617879
 30
0.0
 11
72.609671866
 21
21.0089617879
 31
0.0
  0
LINE
  5
90
330
1F
100
AcDbEntity
  8
0
  6
Continuous
 62
     7
370
    30
100
AcDbLine
 10
72.6376719692
 20
33.5089618935
 30
0.0
 11
72.609671866
 21
33.5089618935
 31
0.0
  0
LINE
  5
91
330
1F
100
AcDbEntity
  8
0
  6
Continuous
 62
     7
370
    30
100
AcDbLine
 10
76.569673053
 20
21.0089617879
 30
0.0
 11
77.1786729512
 21
21.617961686
 31
0.0
  0
LINE
  5
92
330
1F
100
AcDbEntity
  8
0
  6
Continuous
 62
     7
370
    30
100
AcDbLine
 10
76.569673053
 20
21.0089617879
 30
0.0
 11
72.6376719692
 21
21.0089617879
 31
0.0
  0
LINE
  5
93
330
1F
100
AcDbEntity
  8
0
  6
Continuous
 62
     7
370
    30
100
AcDbLine
 10
76.569673053
 20
33.5089618935
 30
0.0
 11
72.6376719692
 21
33.5089618935
 31
0.0
  0
LINE
  5
94
330
1F
100
AcDbEntity
  8
0
  6
Continuous
 62
     7
370
    30
100
AcDbLine
 10
77.1786729512
 20
21.617961686
 30
0.0
 11
77.1786729512
 21
32.8999614087
 31
0.0
  0
CIRCLE
  5
95
330
1F
100
AcDbEntity
  8
0
  6
Continuous
 62
     7
370
    30
100
AcDbCircle
 10
73.0536713624
 20
21.3529616807
 30
0.0
 40
0.09375
  0
CIRCLE
  5
96
330
1F
100
AcDbEntity
  8
0
  6
Continuous
 62
     7
370
    30
100
AcDbCircle
 10
74.5076713624
 20
26.2589616807
 30
0.0
 40
0.09375
  0
CIRCLE
  5
97
330
1F
100
AcDbEntity
  8
0
  6
Continuous
 62
     7
370
    30
100
AcDbCircle
 10
75.4286713624
 20
21.3529616807
 30
0.0
 40
0.09375
  0
CIRCLE
  5
98
330
1F
100
AcDbEntity
  8
0
  6
Continuous
 62
     7
370
    30
100
AcDbCircle
 10
75.4286713624
 20
33.1649616807
 30
0.0
 40
0.09375
  0
CIRCLE
  5
99
330
1F
100
AcDbEntity
  8
0
  6
Continuous
 62
     7
370
    30
100
AcDbCircle
 10
74.5076713624
 20
28.2589616807
 30
0.0
 40
0.09375
  0
CIRCLE
  5
9A
330
1F
100
AcDbEntity
  8
0
  6
Continuous
 62
     7
370
    30
100
AcDbCircle
 10
73.0536713624
 20
33.1649616807
 30
0.0
 40
0.09375
  0
LINE
  5
9B
330
1F
100
AcDbEntity
  8
0
  6
Continuous
 62
     7
370
    30
100
AcDbLine
 10
77.1786729512
 20
32.8999614087
 30
0.0
 11
76.569673053
 21
33.5089618935
 31
0.0
  0
LINE
  5
9C
330
1F
100
AcDbEntity
  8
0
  6
Continuous
 62
     7
370
    30
100
AcDbLine
 10
76.6106735394
 20
33.4679614071
 30
0.0
 11
76.6106735394
 21
33.510961817
 31
0.0
  0
LINE
  5
9D
330
1F
100
AcDbEntity
  8
0
  6
Continuous
 62
     7
370
    30
100
AcDbLine
 10
72.6376719692
 20
33.510961817
 30
0.0
 11
72.6376719692
 21
33.5089618935
 31
0.0
  0
LINE
  5
9E
330
1F
100
AcDbEntity
  8
0
  6
Continuous
 62
     7
370
    30
100
AcDbLine
 10
72.6376719692
 20
33.510961817
 30
0.0
 11
76.6106735394
 21
33.510961817
 31
0.0
  0
CIRCLE
  5
9F
330
1F
100
AcDbEntity
  8
0
  6
Continuous
 62
     7
370
    30
100
AcDbCircle
 10
75.4286713624
 20
33.1649616807
 30
0.0
 40
0.0804999999999936
  0
CIRCLE
  5
A0
330
1F
100
AcDbEntity
  8
0
  6
Continuous
 62
     7
370
    30
100
AcDbCircle
 10
73.0536713624
 20
33.1649616807
 30
0.0
 40
0.0805000000000007
  0
ARC
  5
A1
330
1F
100
AcDbEntity
  8
0
  6
Continuous
 62
     7
370
    30
100
AcDbCircle
 10
76.6106713624
 20
33.6079616807
 30
0.0
 40
0.0680000000000049
100
AcDbArc
 50
270.0
 51
90.0
  0
LINE
  5
A2
330
1F
100
AcDbEntity
  8
0
  6
Continuous
 62
     7
370
    30
100
AcDbLine
 10
76.6106735394
 20
33.5789615648
 30
0.0
 11
76.6106735394
 21
33.5399615887
 31
0.0
  0
ARC
  5
A3
330
1F
100
AcDbEntity
  8
0
  6
Continuous
 62
     7
370
    30
100
AcDbCircle
 10
76.6106713624
 20
33.6079616807
 30
0.0
 40
0.0290000000000035
100
AcDbArc
 50
270.0
 51
90.0
  0
LINE
  5
A4
330
1F
100
AcDbEntity
  8
0
  6
Continuous
 62
     7
370
    30
100
AcDbLine
 10
76.6106735394
 20
33.6369616948
 30
0.0
 11
76.6106735394
 21
33.6759616709
 31
0.0
  0
LINE
  5
A5
330
1F
100
AcDbEntity
  8
0
  6
Continuous
 62
     7
370
    30
100
AcDbLine
 10
76.1786712766
 20
33.6369616948
 30
0.0
 11
76.1786712766
 21
33.6759616709
 31
0.0
  0
LINE
  5
A6
330
1F
100
AcDbEntity
  8
0
  6
Continuous
 62
     7
370
    30
100
AcDbLine
 10
76.1786712766
 20
33.6759616709
 30
0.0
 11
76.6076698408
 21
33.6759616709
 31
0.0
  0
LINE
  5
A7
330
1F
100
AcDbEntity
  8
0
  6
Continuous
 62
     7
370
    30
100
AcDbLine
 10
76.6076698408
 20
33.6759616709
 30
0.0
 11
76.6076698408
 21
33.6369616948
 31
0.0
  0
LINE
  5
A8
330
1F
100
AcDbEntity
  8
0
  6
Continuous
 62
     7
370
    30
100
AcDbLine
 10
76.6076698408
 20
33.6369616948
 30
0.0
 11
76.1786712766
 21
33.6369616948
 31
0.0
  0
LINE
  5
A9
330
1F
100
AcDbEntity
  8
0
  6
Continuous
 62
     7
370
    30
100
AcDbLine
 10
76.6106735394
 20
33.5399615887
 30
0.0
 11
76.6106735394
 21
33.510961817
 31
0.0
  0
LINE
  5
AA
330
1F
100
AcDbEntity
  8
0
  6
Continuous
 62
     7
370
    30
100
AcDbLine
 10
72.6376719692
 20
33.510961817
 30
0.0
 11
72.6376719692
 21
33.5399615887
 31
0.0
  0
LINE
  5
AB
330
1F
100
AcDbEntity
  8
0
  6
Continuous
 62
     7
370
    30
100
AcDbLine
 10
72.6376719692
 20
33.5789615648
 30
0.0
 11
76.6106735394
 21
33.5789615648
 31
0.0
  0
LINE
  5
AC
330
1F
100
AcDbEntity
  8
0
  6
Continuous
 62
     7
370
    30
100
AcDbLine
 10
76.6106735394
 20
33.6759616709
 30
0.0
 11
76.6076698408
 21
33.6759616709
 31
0.0
  0
LINE
  5
AD
330
1F
100
AcDbEntity
  8
0
  6
Continuous
 62
     7
370
    30
100
AcDbLine
 10
76.6106735394
 20
33.6369616948
 30
0.0
 11
76.6076698408
 21
33.6369616948
 31
0.0
  0
LINE
  5
AE
330
1F
100
AcDbEntity
  8
0
  6
Continuous
 62
     7
370
    30
100
AcDbLine
 10
72.6376719692
 20
33.5789615648
 30
0.0
 11
72.6376719692
 21
33.5399615887
 31
0.0
  0
ARC
  5
AF
330
1F
100
AcDbEntity
  8
0
  6
Continuous
 62
     7
370
    30
100
AcDbCircle
 10
72.6376713624
 20
33.6079616807
 30
0.0
 40
0.0290000000000035
100
AcDbArc
 50
195.0901851797
 51
270.0
  0
ARC
  5
B0
330
1F
100
AcDbEntity
  8
0
  6
Continuous
 62
     7
370
    30
100
AcDbCircle
 10
72.6376713624
 20
33.6079616807
 30
0.0
 40
0.0679999999999982
100
AcDbArc
 50
245.6842608289
 51
270.0
  0
LINE
  5
B1
330
1F
100
AcDbEntity
  8
0
  6
Continuous
 62
     7
370
    30
100
AcDbLine
 10
72.6376719692
 20
21.0089617879
 30
0.0
 11
72.6376719692
 21
21.006961571
 31
0.0
  0
LINE
  5
B2
330
1F
100
AcDbEntity
  8
0
  6
Continuous
 62
     7
370
    30
100
AcDbLine
 10
76.6106735394
 20
21.006961571
 30
0.0
 11
76.6106735394
 21
21.0499616876
 31
0.0
  0
LINE
  5
B3
330
1F
100
AcDbEntity
  8
0
  6
Continuous
 62
     7
370
    30
100
AcDbLine
 10
76.6106735394
 20
21.006961571
 30
0.0
 11
72.6376719692
 21
21.006961571
 31
0.0
  0
CIRCLE
  5
B4
330
1F
100
AcDbEntity
  8
0
  6
Continuous
 62
     7
370
    30
100
AcDbCircle
 10
75.4286713624
 20
21.3529616807
 30
0.0
 40
0.0804999999999936
  0
CIRCLE
  5
B5
330
1F
100
AcDbEntity
  8
0
  6
Continuous
 62
     7
370
    30
100
AcDbCircle
 10
73.0536713624
 20
21.3529616807
 30
0.0
 40
0.0804999999999936
  0
LINE
  5
B6
330
1F
100
AcDbEntity
  8
0
  6
Continuous
 62
     7
370
    30
100
AcDbLine
 10
72.6376719692
 20
20.9779617993
 30
0.0
 11
72.6376719692
 21
21.006961571
 31
0.0
  0
LINE
  5
B7
330
1F
100
AcDbEntity
  8
0
  6
Continuous
 62
     7
370
    30
100
AcDbLine
 10
76.6106735394
 20
21.006961571
 30
0.0
 11
76.6106735394
 21
20.9779617993
 31
0.0
  0
LINE
  5
B8
330
1F
100
AcDbEntity
  8
0
  6
Continuous
 62
     7
370
    30
100
AcDbLine
 10
76.6106735394
 20
20.9389618232
 30
0.0
 11
72.6376719692
 21
20.9389618232
 31
0.0
  0
LINE
  5
B9
330
1F
100
AcDbEntity
  8
0
  6
Continuous
 62
     7
370
    30
100
AcDbLine
 10
76.6106735394
 20
20.8809616932
 30
0.0
 11
76.6106735394
 21
20.8419617171
 31
0.0
  0
LINE
  5
BA
330
1F
100
AcDbEntity
  8
0
  6
Continuous
 62
     7
370
    30
100
AcDbLine
 10
76.6076698408
 20
20.8419617171
 30
0.0
 11
76.6106735394
 21
20.8419617171
 31
0.0
  0
LINE
  5
BB
330
1F
100
AcDbEntity
  8
0
  6
Continuous
 62
     7
370
    30
100
AcDbLine
 10
76.6076698408
 20
20.8809616932
 30
0.0
 11
76.6076698408
 21
20.8419617171
 31
0.0
  0
LINE
  5
BC
330
1F
100
AcDbEntity
  8
0
  6
Continuous
 62
     7
370
    30
100
AcDbLine
 10
76.6076698408
 20
20.8809616932
 30
0.0
 11
76.6106735394
 21
20.8809616932
 31
0.0
  0
LINE
  5
BD
330
1F
100
AcDbEntity
  8
0
  6
Continuous
 62
     7
370
    30
100
AcDbLine
 10
76.1786712766
 20
20.8419617171
 30
0.0
 11
76.1786712766
 21
20.8809616932
 31
0.0
  0
LINE
  5
BE
330
1F
100
AcDbEntity
  8
0
  6
Continuous
 62
     7
370
    30
100
AcDbLine
 10
76.1786712766
 20
20.8809616932
 30
0.0
 11
76.6076698408
 21
20.8809616932
 31
0.0
  0
LINE
  5
BF
330
1F
100
AcDbEntity
  8
0
  6
Continuous
 62
     7
370
    30
100
AcDbLine
 10
76.6076698408
 20
20.8419617171
 30
0.0
 11
76.1786712766
 21
20.8419617171
 31
0.0
  0
LINE
  5
C0
330
1F
100
AcDbEntity
  8
0
  6
Continuous
 62
     7
370
    30
100
AcDbLine
 10
76.6106735394
 20
20.9389618232
 30
0.0
 11
76.6106735394
 21
20.9779617993
 31
0.0
  0
ARC
  5
C1
330
1F
100
AcDbEntity
  8
0
  6
Continuous
 62
     7
370
    30
100
AcDbCircle
 10
76.6106713624
 20
20.9099616807
 30
0.0
 40
0.0290000000000035
100
AcDbArc
 50
270.0
 51
90.0
  0
ARC
  5
C2
330
1F
100
AcDbEntity
  8
0
  6
Continuous
 62
     7
370
    30
100
AcDbCircle
 10
76.6106713624
 20
20.9099616807
 30
0.0
 40
0.0680000000000014
100
AcDbArc
 50
270.0
 51
90.0
  0
LINE
  5
C3
330
1F
100
AcDbEntity
  8
0
  6
Continuous
 62
     7
370
    30
100
AcDbLine
 10
72.6376719692
 20
20.9389618232
 30
0.0
 11
72.6376719692
 21
20.9779617993
 31
0.0
  0
ARC
  5
C4
330
1F
100
AcDbEntity
  8
0
  6
Continuous
 62
     7
370
    30
100
AcDbCircle
 10
72.6376713624
 20
20.9099616807
 30
0.0
 40
0.0680000000000015
100
AcDbArc
 50
90.0
 51
114.3157391711
  0
ARC
  5
C5
330
1F
100
AcDbEntity
  8
0
  6
Continuous
 62
     7
370
    30
100
AcDbCircle
 10
72.6376713624
 20
20.9099616807
 30
0.0
 40
0.0290000000000022
100
AcDbArc
 50
90.0
 51
164.9098148203
  0
LINE
  5
C6
330
1F
100
AcDbEntity
  8
0
  6
Continuous
 62
     7
370
    30
100
AcDbLine
 10
6.6636725065
 20
11.9534613044
 30
0.0
 11
6.6636725065
 21
25.8284616593
 31
0.0
  0
SPLINE
  5
C7
330
1F
100
AcDbEntity
  8
0
  6
Continuous
 62
     7
370
    30
100
AcDbSpline
210
0.0
220
0.0
230
1.0
 70
     8
 71
     3
 72
    13
 73
     9
 74
     0
 42
0.00000001
 43
0.00000001
 40
0.0
 40
0.0
 40
0.0
 40
0.0
 40
0.0939393202270007
 40
0.2781904471811719
 40
0.4624420818587376
 40
0.6466942479178934
 40
0.8309448886543498
 40
1.0
 40
1.0
 40
1.0
 40
1.0
 10
6.663672506459338
 20
25.82846165925925
 30
0.0
 10
6.664040677662202
 20
25.8355995671761
 30
0.0
 10
6.665130974156996
 20
25.85673765706784
 30
0.0
 10
6.677525226892926
 20
25.89051538084334
 30
0.0
 10
6.704206412453868
 20
25.92389516471365
 30
0.0
 10
6.740515937569361
 20
25.94621912532335
 30
0.0
 10
6.781342606753208
 20
25.95616928598661
 30
0.0
 10
6.807943621308929
 20
25.95114656457725
 30
0.0
 10
6.820672079453535
 20
25.9487432164231
 30
0.0
  0
SPLINE
  5
C8
330
1F
100
AcDbEntity
  8
0
  6
Continuous
 62
     7
370
    30
100
AcDbSpline
210
0.0
220
0.0
230
1.0
 70
     8
 71
     3
 72
    14
 73
    10
 74
     0
 42
0.00000001
 43
0.00000001
 40
0.0
 40
0.0
 40
0.0
 40
0.0
 40
0.0556370161810857
 40
0.2396240020087913
 40
0.4236104327413713
 40
0.6075997181070748
 40
0.791587266700055
 40
0.9755770853451486
 40
1.0
 40
1.0
 40
1.0
 40
1.0
 10
6.82067207945354
 20
25.94774879124412
 30
0.0
 10
6.816702265826642
 20
25.94925917488751
 30
0.0
 10
6.799604608658791
 20
25.95576427163855
 30
0.0
 10
6.766078281830306
 20
25.9532513983855
 30
0.0
 10
6.726078168773362
 20
25.93955457326779
 30
0.0
 10
6.692812257224313
 20
25.91234601900116
 30
0.0
 10
6.670505722964055
 20
25.87598252765227
 30
0.0
 10
6.663917128296013
 20
25.84616245388438
 30
0.0
 10
6.663698165666992
 20
25.83031835517437
 30
0.0
 10
6.663672506459338
 20
25.82846165925925
 30
0.0
  0
LINE
  5
C9
330
1F
100
AcDbEntity
  8
0
  6
Continuous
 62
     7
370
    30
100
AcDbLine
 10
3.5076722715
 20
25.8284616593
 30
0.0
 11
6.6636725065
 21
25.8284616593
 31
0.0
  0
SPLINE
  5
CA
330
1F
100
AcDbEntity
  8
0
  6
Continuous
 62
     7
370
    30
100
AcDbSpline
210
0.0
220
0.0
230
1.0
 70
    11
 71
     3
 72
    26
 73
    22
 74
     0
 42
0.00000001
 43
0.00000001
 40
0.0
 40
0.0
 40
0.0
 40
0.0
 40
0.053688392315398
 40
0.1073722475132328
 40
0.1610615229861285
 40
0.2147507531226766
 40
0.2684377059379692
 40
0.3221214778814649
 40
0.3758075310445889
 40
0.4294967268075112
 40
0.4831861953747907
 40
0.5368725328682076
 40
0.590557013693585
 40
0.6442417889820561
 40
0.6979332732620338
 40
0.7516214202079704
 40
0.8053053553486612
 40
0.8589902291439075
 40
0.9126785272618813
 40
0.9663701928164753
 40
1.0
 40
1.0
 40
1.0
 40
1.0
 10
6.132670213976466
 20
23.8623583051863
 30
0.0
 10
6.143212373212955
 20
23.8616357277725
 30
0.0
 10
6.164295800785422
 20
23.86019063400871
 30
0.0
 10
6.192354695494979
 20
23.84890523211793
 30
0.0
 10
6.213688143319152
 20
23.8322362132192
 30
0.0
 10
6.22588309758846
 20
23.81133621438746
 30
0.0
 10
6.227575766566341
 20
23.78870868365257
 30
0.0
 10
6.218565659782409
 20
23.76684922358031
 30
0.0
 10
6.199872756245367
 20
23.74826385934785
 30
0.0
 10
6.173604648909366
 20
23.73509120140747
 30
0.0
 10
6.142720177085268
 20
23.72886869602096
 30
0.0
 10
6.110703999695913
 20
23.73032434643585
 30
0.0
 10
6.081164853964551
 20
23.73928582201695
 30
0.0
 10
6.057433502285634
 20
23.7547082275931
 30
0.0
 10
6.042179406515974
 20
23.77479785560249
 30
0.0
 10
6.037132318608031
 20
23.7972517871067
 30
0.0
 10
6.042851336885385
 20
23.81950963413863
 30
0.0
 10
6.058701873678518
 20
23.83911799685915
 30
0.0
 10
6.082876659283995
 20
23.85377540819557
 30
0.0
 10
6.109000546259052
 20
23.861321375046
 30
0.0
 10
6.126088999110858
 20
23.86206999272939
 30
0.0
 10
6.132670213976466
 20
23.8623583051863
 30
0.0
  0
SPLINE
  5
CB
330
1F
100
AcDbEntity
  8
0
  6
Continuous
 62
     7
370
    30
100
AcDbSpline
210
0.0
220
0.0
230
1.0
 70
    11
 71
     3
 72
    26
 73
    22
 74
     0
 42
0.00000001
 43
0.00000001
 40
0.0
 40
0.0
 40
0.0
 40
0.0
 40
0.0536845200976448
 40
0.1073681357533421
 40
0.1610570330878784
 40
0.2147469289539105
 40
0.2684344259560804
 40
0.3221171902074002
 40
0.3758031131696388
 40
0.4294925288761555
 40
0.4831820121036153
 40
0.5368683415779092
 40
0.5905527672311808
 40
0.644237677359133
 40
0.6979291762998415
 40
0.751617863029763
 40
0.8053007710674964
 40
0.8589861178511063
 40
0.9126744306289409
 40
0.9663662402469311
 40
1.0
 40
1.0
 40
1.0
 40
1.0
 10
6.132670213976466
 20
13.91956509851521
 30
0.0
 10
6.122128875756971
 20
13.92028790898394
 30
0.0
 10
6.101046376911582
 20
13.92173351774395
 30
0.0
 10
6.072988125895991
 20
13.93301799163873
 30
0.0
 10
6.051654418568261
 20
13.94968656047808
 30
0.0
 10
6.039459748021095
 20
13.97058719138569
 30
0.0
 10
6.037766910613471
 20
13.99321514417293
 30
0.0
 10
6.046777237019445
 20
14.01507372327494
 30
0.0
 10
6.065470109024357
 20
14.03365890862874
 30
0.0
 10
6.09173805122401
 20
14.04683200822137
 30
0.0
 10
6.122622602466894
 20
14.05305430097119
 30
0.0
 10
6.154638749779779
 20
14.05159910832069
 30
0.0
 10
6.184177983400006
 20
14.04263778444691
 30
0.0
 10
6.207909239938444
 20
14.0272151074263
 30
0.0
 10
6.223163410679301
 20
14.0071256291042
 30
0.0
 10
6.228210489116617
 20
13.98467110927185
 30
0.0
 10
6.222491248688925
 20
13.96241431977521
 30
0.0
 10
6.206641021470577
 20
13.94280526078796
 30
0.0
 10
6.182466053701796
 20
13.92814817636045
 30
0.0
 10
6.156341545553459
 20
13.9206013190794
 30
0.0
 10
6.139252226997387
 20
13.91985322836646
 30
0.0
 10
6.132670213976466
 20
13.91956509851521
 30
0.0
  0
LINE
  5
CC
330
1F
100
AcDbEntity
  8
0
  6
Continuous
 62
     7
370
    30
100
AcDbLine
 10
3.5076722715
 20
11.9534613044
 30
0.0
 11
3.5076722715
 21
25.8284616593
 31
0.0
  0
SPLINE
  5
CD
330
1F
100
AcDbEntity
  8
0
  6
Continuous
 62
     7
370
    30
100
AcDbSpline
210
0.0
220
0.0
230
1.0
 70
     8
 71
     3
 72
    12
 73
     8
 74
     0
 42
0.00000001
 43
0.00000001
 40
0.0
 40
0.0
 40
0.0
 40
0.0
 40
0.2405126486948102
 40
0.4810052704667121
 40
0.7215227876353374
 40
0.9620394819002334
 40
1.0
 40
1.0
 40
1.0
 40
1.0
 10
6.132670213976462
 20
23.83831448960918
 30
0.0
 10
6.143198637909151
 20
23.83759094680601
 30
0.0
 10
6.164254609097409
 20
23.83614392144738
 30
0.0
 10
6.192519563604934
 20
23.82487473464845
 30
0.0
 10
6.213069928372144
 20
23.8081472230836
 30
0.0
 10
6.22394626553956
 20
23.79327404632836
 30
0.0
 10
6.224341750620539
 20
23.78467283391258
 30
0.0
 10
6.224395661022936
 20
23.78350036282665
 30
0.0
  0
SPLINE
  5
CE
330
1F
100
AcDbEntity
  8
0
  6
Continuous
 62
     7
370
    30
100
AcDbSpline
210
0.0
220
0.0
230
1.0
 70
     8
 71
     3
 72
    12
 73
     8
 74
     0
 42
0.00000001
 43
0.00000001
 40
0.0
 40
0.0
 40
0.0
 40
0.0
 40
0.1276842554224158
 40
0.3682153400600738
 40
0.6087617936639205
 40
0.8493063401556731
 40
0.9999999999999999
 40
0.9999999999999999
 40
0.9999999999999999
 40
0.9999999999999999
 10
6.041559586494209
 20
23.78342805699527
 30
0.0
 10
6.042280814528739
 20
23.78735055746388
 30
0.0
 10
6.044360689021643
 20
23.79866224847198
 30
0.0
 10
6.059026106459299
 20
23.81503273323491
 30
0.0
 10
6.082788348384475
 20
23.82974302280805
 30
0.0
 10
6.10901231052014
 20
23.83727623959642
 30
0.0
 10
6.126091719005867
 20
23.8380257859842
 30
0.0
 10
6.132670213976466
 20
23.83831448960918
 30
0.0
  0
SPLINE
  5
CF
330
1F
100
AcDbEntity
  8
0
  6
Continuous
 62
     7
370
    30
100
AcDbSpline
210
0.0
220
0.0
230
1.0
 70
     8
 71
     3
 72
    12
 73
     8
 74
     0
 42
0.00000001
 43
0.00000001
 40
0.0
 40
0.0
 40
0.0
 40
0.0
 40
0.2448782734106842
 40
0.4897509120174319
 40
0.7346527994886544
 40
0.9795526546143696
 40
1.0
 40
1.0
 40
1.0
 40
1.0
 10
6.132670213976466
 20
13.94360876742736
 30
0.0
 10
6.122144552019752
 20
13.94433297096081
 30
0.0
 10
6.101093470308481
 20
13.94578136136332
 30
0.0
 10
6.07279998018325
 20
13.95704494381746
 30
0.0
 10
6.052359034443549
 20
13.97378640300047
 30
0.0
 10
6.041574290758765
 20
13.98811299798284
 30
0.0
 10
6.041107458977956
 20
13.99615238113862
 30
0.0
 10
6.041071485466123
 20
13.99677188661581
 30
0.0
  0
SPLINE
  5
D0
330
1F
100
AcDbEntity
  8
0
  6
Continuous
 62
     7
370
    30
100
AcDbSpline
210
0.0
220
0.0
230
1.0
 70
     8
 71
     3
 72
    12
 73
     8
 74
     0
 42
0.00000001
 43
0.00000001
 40
0.0
 40
0.0
 40
0.0
 40
0.0
 40
0.1182424938040432
 40
0.3613714939499014
 40
0.6045156790880113
 40
0.8476604435619592
 40
1.0
 40
1.0
 40
1.0
 40
1.0
 10
6.223532097665565
 20
13.99752281127439
 30
0.0
 10
6.22285843073473
 20
13.99393195721243
 30
0.0
 10
6.220799576786471
 20
13.9829576259447
 30
0.0
 10
6.206290891872025
 20
13.96689586146218
 30
0.0
 10
6.182561225283382
 20
13.95217957908663
 30
0.0
 10
6.156328829254845
 20
13.94464643270479
 30
0.0
 10
6.139249231625125
 20
13.94389732269965
 30
0.0
 10
6.132670213976462
 20
13.94360876742736
 30
0.0
  0
LINE
  5
D1
330
1F
100
AcDbEntity
  8
0
  6
Continuous
 62
     7
370
    30
100
AcDbLine
 10
6.6636725065
 20
28.8274617346
 30
0.0
 11
6.6636725065
 21
42.7024615027
 31
0.0
  0
SPLINE
  5
D2
330
1F
100
AcDbEntity
  8
0
  6
Continuous
 62
     7
370
    30
100
AcDbSpline
210
0.0
220
0.0
230
1.0
 70
     8
 71
     3
 72
    13
 73
     9
 74
     0
 42
0.00000001
 43
0.00000001
 40
0.0
 40
0.0
 40
0.0
 40
0.0
 40
0.0939393113400762
 40
0.2781905726071812
 40
0.4624416881861365
 40
0.6466941766183324
 40
0.8309449046474399
 40
1.0
 40
1.0
 40
1.0
 40
1.0
 10
6.663672506459333
 20
28.82746173455446
 30
0.0
 10
6.664040679317321
 20
28.82032382775186
 30
0.0
 10
6.665130981308253
 20
28.7991857296297
 30
0.0
 10
6.677525166199577
 20
28.76540798890958
 30
0.0
 10
6.704206509659287
 20
28.73202834740972
 30
0.0
 10
6.740515898082623
 20
28.7097042314605
 30
0.0
 10
6.781342598356574
 20
28.69975393758838
 30
0.0
 10
6.807943621143288
 20
28.70477667542398
 30
0.0
 10
6.82067207945354
 20
28.70718003072564
 30
0.0
  0
SPLINE
  5
D3
330
1F
100
AcDbEntity
  8
0
  6
Continuous
 62
     7
370
    30
100
AcDbSpline
210
0.0
220
0.0
230
1.0
 70
     8
 71
     3
 72
    14
 73
    10
 74
     0
 42
0.00000001
 43
0.00000001
 40
0.0
 40
0.0
 40
0.0
 40
0.0
 40
0.0556371986995368
 40
0.2396240967382896
 40
0.4236108245461682
 40
0.6075995189255576
 40
0.7915865726859933
 40
0.9755769357886026
 40
1.0
 40
1.0
 40
1.0
 40
1.0
 10
6.82067207945354
 20
28.70817471256832
 30
0.0
 10
6.816702268430535
 20
28.70666427635036
 30
0.0
 10
6.799604671807342
 20
28.70015897193408
 30
0.0
 10
6.766078197142739
 20
28.70267176118371
 30
0.0
 10
6.726078290501742
 20
28.71636901939626
 30
0.0
 10
6.692812233889086
 20
28.74357725759493
 30
0.0
 10
6.670505672216456
 20
28.7799407596409
 30
0.0
 10
6.66391712758252
 20
28.80976086780438
 30
0.0
 10
6.663698165656309
 20
28.82560502643109
 30
0.0
 10
6.663672506459338
 20
28.82746173455446
 30
0.0
  0
SPLINE
  5
D4
330
1F
100
AcDbEntity
  8
0
  6
Continuous
 62
     7
370
    30
100
AcDbSpline
210
0.0
220
0.0
230
1.0
 70
    11
 71
     3
 72
    26
 73
    22
 74
     0
 42
0.00000001
 43
0.00000001
 40
0.0
 40
0.0
 40
0.0
 40
0.0
 40
0.0538265347960018
 40
0.1076512486048831
 40
0.1614915589014106
 40
0.215230744296739
 40
0.2687956369455213
 40
0.3222527794339996
 40
0.3757650156564624
 40
0.429442849548189
 40
0.4832603433743092
 40
0.5370959746079078
 40
0.5908573942465272
 40
0.6445361684052832
 40
0.6981756229172622
 40
0.751805622014666
 40
0.8054379720226236
 40
0.8590691527061914
 40
0.9126994576071766
 40
0.9663382240889751
 40
1.0
 40
1.0
 40
1.0
 40
1.0
 10
6.351670350734865
 20
36.13996195326127
 30
0.0
 10
6.349240072247177
 20
36.16463013522797
 30
0.0
 10
6.344379597489727
 20
36.21396566462051
 30
0.0
 10
6.306518107633196
 20
36.27958514204543
 30
0.0
 10
6.250768156197117
 20
36.32941826457481
 30
0.0
 10
6.181235174592335
 20
36.3578052179309
 30
0.0
 10
6.106492118857275
 20
36.36159324333638
 30
0.0
 10
6.034790181030649
 20
36.34051401112879
 30
0.0
 10
5.974076192497852
 20
36.29697456138161
 30
0.0
 10
5.931071493977536
 20
36.23573395186702
 30
0.0
 10
5.910715310656376
 20
36.16356476616553
 30
0.0
 10
5.915439615084338
 20
36.08864672611018
 30
0.0
 10
5.944733331955617
 20
36.0195495672863
 30
0.0
 10
5.995226489406131
 20
35.96410676864339
 30
0.0
 10
6.061182982147843
 20
35.92852848099287
 30
0.0
 10
6.135186792544175
 20
35.91678493775987
 30
0.0
 10
6.208877629338946
 20
35.93018782359026
 30
0.0
 10
6.274073738942046
 20
35.96723534513424
 30
0.0
 10
6.322967009957818
 20
36.02369902191742
 30
0.0
 10
6.348200945340251
 20
36.08469596183146
 30
0.0
 10
6.350704873645998
 20
36.12458235864786
 30
0.0
 10
6.351670350734865
 20
36.13996195326127
 30
0.0
  0
LINE
  5
D5
330
1F
100
AcDbEntity
  8
0
  6
Continuous
 62
     7
370
    30
100
AcDbLine
 10
6.6636725065
 20
28.8274617346
 30
0.0
 11
3.5076722715
 21
28.8274617346
 31
0.0
  0
SPLINE
  5
D6
330
1F
100
AcDbEntity
  8
0
  6
Continuous
 62
     7
370
    30
100
AcDbSpline
210
0.0
220
0.0
230
1.0
 70
    11
 71
     3
 72
    26
 73
    22
 74
     0
 42
0.00000001
 43
0.00000001
 40
0.0
 40
0.0
 40
0.0
 40
0.0
 40
0.0537099005969772
 40
0.1074217941707202
 40
0.1610835613259369
 40
0.2147169988331299
 40
0.2683482578696765
 40
0.3219796233637586
 40
0.3756114541106643
 40
0.4292418237768804
 40
0.4828874505337286
 40
0.5365890417328524
 40
0.5903794629904426
 40
0.6442231368757995
 40
0.6980064101643005
 40
0.7516261342635266
 40
0.8051027024086594
 40
0.8585796061292227
 40
0.9122014845509527
 40
0.965985369794378
 40
1.0
 40
1.0
 40
1.0
 40
1.0
 10
6.351670350734865
 20
35.38996187065956
 30
0.0
 10
6.34925040242807
 20
35.41458567754641
 30
0.0
 10
6.344410416019079
 20
35.46383420501898
 30
0.0
 10
6.30664586738631
 20
35.52941249945389
 30
0.0
 10
6.251023570811782
 20
35.57924018433987
 30
0.0
 10
6.181610290477815
 20
35.60771778488798
 30
0.0
 10
6.106817984516941
 20
35.61165070407534
 30
0.0
 10
6.034908318888842
 20
35.59060211179242
 30
0.0
 10
5.974027673819538
 20
35.54695383456039
 30
0.0
 10
5.931029387446623
 20
35.48562913188597
 30
0.0
 10
5.910735066730082
 20
35.41354526786986
 30
0.0
 10
5.915424384737945
 20
35.33877981318869
 30
0.0
 10
5.944624662653172
 20
35.26971847387405
 30
0.0
 10
5.995103921910115
 20
35.21418405630948
 30
0.0
 10
6.061130969959931
 20
35.17853649640757
 30
0.0
 10
6.135127824148462
 20
35.16679610847064
 30
0.0
 10
6.208670080412396
 20
35.18014079468637
 30
0.0
 10
6.27373496035301
 20
35.21698778577495
 30
0.0
 10
6.32268642600191
 20
35.27324449092937
 30
0.0
 10
6.348140924596757
 20
35.33431733051278
 30
0.0
 10
6.350684807472847
 20
35.37442390514785
 30
0.0
 10
6.351670350734865
 20
35.38996187065956
 30
0.0
  0
SPLINE
  5
D7
330
1F
100
AcDbEntity
  8
0
  6
Continuous
 62
     7
370
    30
100
AcDbSpline
210
0.0
220
0.0
230
1.0
 70
    11
 71
     3
 72
    26
 73
    22
 74
     0
 42
0.00000001
 43
0.00000001
 40
0.0
 40
0.0
 40
0.0
 40
0.0
 40
0.0536884319782177
 40
0.1073726919224244
 40
0.1610615556531919
 40
0.2147501157876598
 40
0.2684375791869374
 40
0.3221216729768731
 40
0.3758075623372045
 40
0.429496944439628
 40
0.4831863940629524
 40
0.5368726899350847
 40
0.5905576406645244
 40
0.6442425171912035
 40
0.6979327298148523
 40
0.7516213829411369
 40
0.8053056463983153
 40
0.8589909595803787
 40
0.9126783184964379
 40
0.9663700945088365
 40
0.9999999999999999
 40
0.9999999999999999
 40
0.9999999999999999
 40
0.9999999999999999
 10
6.132670213976466
 20
40.73635888195839
 30
0.0
 10
6.143212397264971
 20
40.73563625947965
 30
0.0
 10
6.164295944627416
 20
40.73419107067586
 30
0.0
 10
6.192354451415896
 20
40.72290455988789
 30
0.0
 10
6.213688128820348
 20
40.70623626329435
 30
0.0
 10
6.225883192741566
 20
40.6853367691482
 30
0.0
 10
6.227575735194712
 20
40.66270881850505
 30
0.0
 10
6.218565759706083
 20
40.64084903263522
 30
0.0
 10
6.199872650205138
 20
40.62226396103418
 30
0.0
 10
6.173604720891428
 20
40.60909075745395
 30
0.0
 10
6.142720197396584
 20
40.60286860958254
 30
0.0
 10
6.110703815157513
 20
40.60432333178641
 30
0.0
 10
6.081164959670764
 20
40.61328648284557
 30
0.0
 10
6.05743379924905
 20
40.62870888120423
 30
0.0
 10
6.042179161951806
 20
40.64879716782807
 30
0.0
 10
6.03713235119097
 20
40.67125175282541
 30
0.0
 10
6.042851396726065
 20
40.69350961004179
 30
0.0
 10
6.058701511790641
 20
40.71311885685616
 30
0.0
 10
6.082877016442104
 20
40.72777453536596
 30
0.0
 10
6.109000535525307
 20
40.73532078584402
 30
0.0
 10
6.126088993596502
 20
40.73607024519814
 30
0.0
 10
6.132670213976466
 20
40.73635888195839
 30
0.0
  0
SPLINE
  5
D8
330
1F
100
AcDbEntity
  8
0
  6
Continuous
 62
     7
370
    30
100
AcDbSpline
210
0.0
220
0.0
230
1.0
 70
    11
 71
     3
 72
    26
 73
    22
 74
     0
 42
0.00000001
 43
0.00000001
 40
0.0
 40
0.0
 40
0.0
 40
0.0
 40
0.0536883822136559
 40
0.1073719691097106
 40
0.1610616319623425
 40
0.2147511808446839
 40
0.2684375935377962
 40
0.3221213553804192
 40
0.3758078285608781
 40
0.4294968133710974
 40
0.4831863663464533
 40
0.5368727158248657
 40
0.5905571201030982
 40
0.6442422411400108
 40
0.6979334021354451
 40
0.7516217140203987
 40
0.8053056390601859
 40
0.8589903459326432
 40
0.9126786386200734
 40
0.9663701614296456
 40
1.0
 40
1.0
 40
1.0
 40
1.0
 10
6.132670213976466
 20
30.92614773035475
 30
0.0
 10
6.14321235511024
 20
30.9254047163673
 30
0.0
 10
6.164295695779029
 20
30.92391875475663
 30
0.0
 10
6.192354894850498
 20
30.91235033652655
 30
0.0
 10
6.213688100590431
 20
30.89536676671948
 30
0.0
 10
6.225883040951222
 20
30.87424062513419
 30
0.0
 10
6.22757577702591
 20
30.85157978252307
 30
0.0
 10
6.218565557205687
 20
30.82989281505244
 30
0.0
 10
6.199872940752702
 20
30.81161008849743
 30
0.0
 10
6.173604531850436
 20
30.79873855586479
 30
0.0
 10
6.142720210775646
 20
30.79268218853739
 30
0.0
 10
6.110704041939911
 20
30.79409796120463
 30
0.0
 10
6.081164706673452
 20
30.80282931871357
 30
0.0
 10
6.057433675172212
 20
30.81793357220239
 30
0.0
 10
6.042179320613621
 20
30.83775564147034
 30
0.0
 10
6.037132342796071
 20
30.86010986467242
 30
0.0
 10
6.042851302603241
 20
30.8824801085338
 30
0.0
 10
6.058701922793452
 20
30.90236337004076
 30
0.0
 10
6.082876601527431
 20
30.91733585162524
 30
0.0
 10
6.109000603993465
 20
30.92508157512995
 30
0.0
 10
6.126089004669911
 20
30.92585129155865
 30
0.0
 10
6.132670213976466
 20
30.92614773035475
 30
0.0
  0
LINE
  5
D9
330
1F
100
AcDbEntity
  8
0
  6
Continuous
 62
     7
370
    30
100
AcDbLine
 10
3.5076722715
 20
28.8274617346
 30
0.0
 11
3.5076722715
 21
42.7024615027
 31
0.0
  0
SPLINE
  5
DA
330
1F
100
AcDbEntity
  8
0
  6
Continuous
 62
     7
370
    30
100
AcDbSpline
210
0.0
220
0.0
230
1.0
 70
     8
 71
     3
 72
    12
 73
     8
 74
     0
 42
0.00000001
 43
0.00000001
 40
0.0
 40
0.0
 40
0.0
 40
0.0
 40
0.244891876088247
 40
0.489764281596805
 40
0.7346628437896796
 40
0.9795593736646421
 40
1.0
 40
1.0
 40
1.0
 40
1.0
 10
6.132670213976466
 20
40.71231403972646
 30
0.0
 10
6.143196733205127
 20
40.71159054239066
 30
0.0
 10
6.164248934732145
 20
40.71014360524205
 30
0.0
 10
6.192542553651293
 20
40.69887719847652
 30
0.0
 10
6.212983821982807
 20
40.6821375287541
 30
0.0
 10
6.223768252821486
 20
40.66780772025127
 30
0.0
 10
6.224235308802602
 20
40.65977119875543
 30
0.0
 10
6.224271289126363
 20
40.65915209385779
 30
0.0
  0
SPLINE
  5
DB
330
1F
100
AcDbEntity
  8
0
  6
Continuous
 62
     7
370
    30
100
AcDbSpline
210
0.0
220
0.0
230
1.0
 70
     8
 71
     3
 72
    12
 73
     8
 74
     0
 42
0.00000001
 43
0.00000001
 40
0.0
 40
0.0
 40
0.0
 40
0.0
 40
0.1182444095722624
 40
0.3613773489010376
 40
0.6045296411759434
 40
0.847676000842872
 40
1.0
 40
1.0
 40
1.0
 40
1.0
 10
6.041810676926924
 20
40.65839999587943
 30
0.0
 10
6.042484338698142
 20
40.66199086248586
 30
0.0
 10
6.044543176877656
 20
40.67296523209185
 30
0.0
 10
6.059052177294244
 20
40.68902658342316
 30
0.0
 10
6.082781049189582
 20
40.70374506863646
 30
0.0
 10
6.10901337971629
 20
40.71127588855004
 30
0.0
 10
6.126092008944946
 20
40.71202536326125
 30
0.0
 10
6.132670213976466
 20
40.71231403972646
 30
0.0
  0
SPLINE
  5
DC
330
1F
100
AcDbEntity
  8
0
  6
Continuous
 62
     7
370
    30
100
AcDbSpline
210
0.0
220
0.0
230
1.0
 70
     8
 71
     3
 72
    16
 73
    12
 74
     0
 42
0.00000001
 43
0.00000001
 40
0.0
 40
0.0
 40
0.0
 40
0.0
 40
0.0969145954124298
 40
0.2186033666302404
 40
0.3402995892418008
 40
0.4619964055822245
 40
0.5836860691507589
 40
0.7053711225029996
 40
0.827058123007032
 40
0.948759520663084
 40
1.0
 40
1.0
 40
1.0
 40
1.0
 10
6.223992039018946
 20
30.87145166887499
 30
0.0
 10
6.222141873394622
 20
30.86565689969411
 30
0.0
 10
6.217968586258886
 20
30.85258605059862
 30
0.0
 10
6.199675414993803
 20
30.83568491688009
 30
0.0
 10
6.173659401862915
 20
30.82277389460373
 30
0.0
 10
6.142698508757423
 20
30.81672807965501
 30
0.0
 10
6.110735991679427
 20
30.81814459656709
 30
0.0
 10
6.081058694726882
 20
30.8268588888071
 30
0.0
 10
6.057825606963214
 20
30.84202725171573
 30
0.0
 10
6.044018786852337
 20
30.85782810611471
 30
0.0
 10
6.042302703985007
 20
30.86834095271029
 30
0.0
 10
6.041794250450018
 20
30.87145577549422
 30
0.0
  0
LINE
  5
DD
330
1F
100
AcDbEntity
  8
0
  6
Continuous
 62
     7
370
    30
100
AcDbLine
 10
6.8996717002
 20
9.8118007118
 30
0.0
 11
6.8596708823
 21
9.8118007118
 31
0.0
  0
LINE
  5
DE
330
1F
100
AcDbEntity
  8
0
  6
Continuous
 62
     7
370
    30
100
AcDbLine
 10
6.8996717002
 20
9.9038007156
 30
0.0
 11
6.8996717002
 21
9.8669619945
 31
0.0
  0
LINE
  5
DF
330
1F
100
AcDbEntity
  8
0
  6
Continuous
 62
     7
370
    30
100
AcDbLine
 10
6.8996717002
 20
9.8279620184
 30
0.0
 11
6.8996717002
 21
9.8118007118
 31
0.0
  0
LINE
  5
E0
330
1F
100
AcDbEntity
  8
0
  6
Continuous
 62
     7
370
    30
100
AcDbLine
 10
6.8596708823
 20
9.8351274823
 30
0.0
 11
6.8596708823
 21
9.8118007118
 31
0.0
  0
LINE
  5
E1
330
1F
100
AcDbEntity
  8
0
  6
Continuous
 62
     7
370
    30
100
AcDbLine
 10
72.541832863
 20
9.7839613534
 30
0.0
 11
72.541832863
 21
9.7439617088
 31
0.0
  0
LINE
  5
E2
330
1F
100
AcDbEntity
  8
0
  6
Continuous
 62
     7
370
    30
100
AcDbLine
 10
6.9275098853
 20
9.7839613534
 30
0.0
 11
6.9275098853
 21
9.7439617088
 31
0.0
  0
LINE
  5
E3
330
1F
100
AcDbEntity
  8
0
  6
Continuous
 62
     7
370
    30
100
AcDbLine
 10
6.9275098853
 20
9.7839613534
 30
0.0
 11
10.8711549946
 21
9.7839613534
 31
0.0
  0
LINE
  5
E4
330
1F
100
AcDbEntity
  8
0
  6
Continuous
 62
     7
370
    30
100
AcDbLine
 10
28.9111865413
 20
9.7839613534
 30
0.0
 11
72.541832863
 21
9.7839613534
 31
0.0
  0
LINE
  5
E5
330
1F
100
AcDbEntity
  8
0
  6
Continuous
 62
     7
370
    30
100
AcDbLine
 10
6.9275098853
 20
9.7439617088
 30
0.0
 11
10.8711549946
 21
9.7439617088
 31
0.0
  0
LINE
  5
E6
330
1F
100
AcDbEntity
  8
0
  6
Continuous
 62
     7
370
    30
100
AcDbLine
 10
28.9111865413
 20
9.7439617088
 30
0.0
 11
72.541832863
 21
9.7439617088
 31
0.0
  0
LINE
  5
E7
330
1F
100
AcDbEntity
  8
0
  6
Continuous
 62
     7
370
    30
100
AcDbLine
 10
72.5696710481
 20
9.8118007118
 30
0.0
 11
72.609671866
 21
9.8118007118
 31
0.0
  0
LINE
  5
E8
330
1F
100
AcDbEntity
  8
0
  6
Continuous
 62
     7
370
    30
100
AcDbLine
 10
72.609671866
 20
9.8118007118
 30
0.0
 11
72.609671866
 21
9.9368003344
 31
0.0
  0
LINE
  5
E9
330
1F
100
AcDbEntity
  8
0
  6
Continuous
 62
     7
370
    30
100
AcDbLine
 10
72.5696710481
 20
9.8118007118
 30
0.0
 11
72.5696710481
 21
9.8979611031
 31
0.0
  0
SPLINE
  5
EA
330
1F
100
AcDbEntity
  8
0
  6
Continuous
 62
     7
370
    30
100
AcDbSpline
210
0.0
220
0.0
230
1.0
 70
     8
 71
     3
 72
    11
 73
     7
 74
     0
 42
0.00000001
 43
0.00000001
 40
0.0
 40
0.0
 40
0.0
 40
0.0
 40
0.2500080963169253
 40
0.5000018664427952
 40
0.7500152751854691
 40
1.0
 40
1.0
 40
1.0
 40
1.0
 10
6.899671700176513
 20
9.811800711759934
 30
0.0
 10
6.900122553147459
 20
9.811980476961143
 30
0.0
 10
6.901024233254154
 20
9.812339997062473
 30
0.0
 10
6.907960877065661
 20
9.812881875048076
 30
0.0
 10
6.917878403399032
 20
9.813420606483193
 30
0.0
 10
6.925740378333179
 20
9.813781520257995
 30
0.0
 10
6.929671140287088
 20
9.813961966792933
 30
0.0
  0
SPLINE
  5
EB
330
1F
100
AcDbEntity
  8
0
  6
Continuous
 62
     7
370
    30
100
AcDbSpline
210
0.0
220
0.0
230
1.0
 70
     8
 71
     3
 72
    11
 73
     7
 74
     0
 42
0.00000001
 43
0.00000001
 40
0.0
 40
0.0
 40
0.0
 40
0.0
 40
0.2499847248145311
 40
0.4999981335572049
 40
0.7499919036830748
 40
1.0
 40
1.0
 40
1.0
 40
1.0
 10
72.53967160796297
 20
9.813961966792933
 30
0.0
 10
72.54360236991687
 20
9.813781520258
 30
0.0
 10
72.55146434485103
 20
9.813420606483199
 30
0.0
 10
72.5613818711844
 20
9.812881875048076
 30
0.0
 10
72.5683185149959
 20
9.812339997062473
 30
0.0
 10
72.56922019510262
 20
9.811980476961143
 30
0.0
 10
72.56967104807354
 20
9.811800711759934
 30
0.0
  0
SPLINE
  5
EC
330
1F
100
AcDbEntity
  8
0
  6
Continuous
 62
     7
370
    30
100
AcDbSpline
210
0.0
220
0.0
230
1.0
 70
     8
 71
     3
 72
    11
 73
     7
 74
     0
 42
0.00000001
 43
0.00000001
 40
0.0
 40
0.0
 40
0.0
 40
0.0
 40
0.2500059427155849
 40
0.4999964050710869
 40
0.7499891785127185
 40
1.0
 40
1.0
 40
1.0
 40
1.0
 10
6.929671140287088
 20
9.813961966792933
 30
0.0
 10
6.92949116428023
 20
9.810030751329064
 30
0.0
 10
6.929131223410631
 20
9.802168563822072
 30
0.0
 10
6.928592521464479
 20
9.792251512295058
 30
0.0
 10
6.928048793634256
 20
9.785315314140274
 30
0.0
 10
6.9276895257035
 20
9.7844126844822
 30
0.0
 10
6.92750988525409
 20
9.78396135336258
 30
0.0
  0
SPLINE
  5
ED
330
1F
100
AcDbEntity
  8
0
  6
Continuous
 62
     7
370
    30
100
AcDbSpline
210
0.0
220
0.0
230
1.0
 70
     8
 71
     3
 72
    11
 73
     7
 74
     0
 42
0.00000001
 43
0.00000001
 40
0.0
 40
0.0
 40
0.0
 40
0.0
 40
0.2500108214872815
 40
0.5000035949289131
 40
0.7499940572844151
 40
1.0
 40
1.0
 40
1.0
 40
1.0
 10
72.54183286299596
 20
9.78396135336258
 30
0.0
 10
72.54165322254656
 20
9.784412684482204
 30
0.0
 10
72.54129395461582
 20
9.785315314140277
 30
0.0
 10
72.54075022678558
 20
9.792251512295058
 30
0.0
 10
72.54021152483944
 20
9.802168563822063
 30
0.0
 10
72.53985158396983
 20
9.810030751329064
 30
0.0
 10
72.53967160796297
 20
9.813961966792933
 30
0.0
  0
SPLINE
  5
EE
330
1F
100
AcDbEntity
  8
0
  6
Continuous
 62
     7
370
    30
100
AcDbSpline
210
0.0
220
0.0
230
1.0
 70
     8
 71
     3
 72
    11
 73
     7
 74
     0
 42
0.00000001
 43
0.00000001
 40
0.0
 40
0.0
 40
0.0
 40
0.0
 40
0.2500022901751425
 40
0.5000023128231722
 40
0.7499990330353147
 40
1.0
 40
1.0
 40
1.0
 40
1.0
 10
6.929671140287088
 20
44.92396181307865
 30
0.0
 10
6.929491161624441
 20
44.93313446445493
 30
0.0
 10
6.929131205931577
 20
44.95147968401128
 30
0.0
 10
6.928592528904559
 20
44.97461807468344
 30
0.0
 10
6.928048810223531
 20
44.99080432056811
 30
0.0
 10
6.927689527927757
 20
44.99290948162687
 30
0.0
 10
6.92750988525409
 20
44.99396207109636
 30
0.0
  0
LINE
  5
EF
330
1F
100
AcDbEntity
  8
0
  6
Continuous
 62
     7
370
    30
100
AcDbLine
 10
6.9275098853
 20
44.9939620711
 30
0.0
 11
72.541832863
 21
44.9939620711
 31
0.0
  0
SPLINE
  5
F0
330
1F
100
AcDbEntity
  8
0
  6
Continuous
 62
     7
370
    30
100
AcDbSpline
210
0.0
220
0.0
230
1.0
 70
     8
 71
     3
 72
    11
 73
     7
 74
     0
 42
0.00000001
 43
0.00000001
 40
0.0
 40
0.0
 40
0.0
 40
0.0
 40
0.2500009669646853
 40
0.4999976871768277
 40
0.7499977098248575
 40
0.9999999999999999
 40
0.9999999999999999
 40
0.9999999999999999
 40
0.9999999999999999
 10
72.54183286299596
 20
44.99396207109636
 30
0.0
 10
72.54165322032229
 20
44.99290948162686
 30
0.0
 10
72.54129393802651
 20
44.99080432056811
 30
0.0
 10
72.54075021934551
 20
44.97461807468344
 30
0.0
 10
72.54021154231847
 20
44.95147968401128
 30
0.0
 10
72.5398515866256
 20
44.93313446445492
 30
0.0
 10
72.53967160796297
 20
44.92396181307865
 30
0.0
  0
LINE
  5
F1
330
1F
100
AcDbEntity
  8
0
  6
Continuous
 62
     7
370
    30
100
AcDbLine
 10
72.539671608
 20
44.9239618131
 30
0.0
 11
6.9296711403
 21
44.9239618131
 31
0.0
  0
LINE
  5
F2
330
1F
100
AcDbEntity
  8
0
  6
Continuous
 62
     7
370
    30
100
AcDbLine
 10
72.539671608
 20
9.9389615895
 30
0.0
 11
72.539671608
 21
44.9239618131
 31
0.0
  0
CIRCLE
  5
F3
330
1F
100
AcDbEntity
  8
0
  6
Continuous
 62
     7
370
    30
100
AcDbCircle
 10
71.4846713624
 20
10.3999616807
 30
0.0
 40
0.094000000000003
  0
CIRCLE
  5
F4
330
1F
100
AcDbEntity
  8
0
  6
Continuous
 62
     7
370
    30
100
AcDbCircle
 10
60.9846713624
 20
10.3999616807
 30
0.0
 40
0.094000000000003
  0
CIRCLE
  5
F5
330
1F
100
AcDbEntity
  8
0
  6
Continuous
 62
     7
370
    30
100
AcDbCircle
 10
18.4846713624
 20
10.3999616807
 30
0.0
 40
0.0940000000000012
  0
CIRCLE
  5
F6
330
1F
100
AcDbEntity
  8
0
  6
Continuous
 62
     7
370
    30
100
AcDbCircle
 10
7.9846713624
 20
10.3999616807
 30
0.0
 40
0.0939999999999976
  0
CIRCLE
  5
F7
330
1F
100
AcDbEntity
  8
0
  6
Continuous
 62
     7
370
    30
100
AcDbCircle
 10
7.9846713624
 20
44.4629616807
 30
0.0
 40
0.0939999999999941
  0
CIRCLE
  5
F8
330
1F
100
AcDbEntity
  8
0
  6
Continuous
 62
     7
370
    30
100
AcDbCircle
 10
18.4846713624
 20
44.4629616807
 30
0.0
 40
0.0940000000000012
  0
CIRCLE
  5
F9
330
1F
100
AcDbEntity
  8
0
  6
Continuous
 62
     7
370
    30
100
AcDbCircle
 10
60.9846713624
 20
44.4629616807
 30
0.0
 40
0.0940000000000012
  0
CIRCLE
  5
FA
330
1F
100
AcDbEntity
  8
0
  6
Continuous
 62
     7
370
    30
100
AcDbCircle
 10
71.4846713624
 20
44.4629616807
 30
0.0
 40
0.0940000000000012
  0
CIRCLE
  5
FB
330
1F
100
AcDbEntity
  8
0
  6
Continuous
 62
     7
370
    30
100
AcDbCircle
 10
39.7346713624
 20
10.3999616807
 30
0.0
 40
0.0940000000000012
  0
CIRCLE
  5
FC
330
1F
100
AcDbEntity
  8
0
  6
Continuous
 62
     7
370
    30
100
AcDbCircle
 10
39.7346713624
 20
44.4629616807
 30
0.0
 40
0.0939999999999941
  0
CIRCLE
  5
FD
330
1F
100
AcDbEntity
  8
0
  6
Continuous
 62
     7
370
    30
100
AcDbCircle
 10
72.1406713624
 20
43.1809616807
 30
0.0
 40
0.0470000000000113
  0
CIRCLE
  5
FE
330
1F
100
AcDbEntity
  8
0
  6
Continuous
 62
     7
370
    30
100
AcDbCircle
 10
72.1406713624
 20
32.6809616807
 30
0.0
 40
0.046999999999997
  0
CIRCLE
  5
FF
330
1F
100
AcDbEntity
  8
0
  6
Continuous
 62
     7
370
    30
100
AcDbCircle
 10
72.1406713624
 20
22.1819616807
 30
0.0
 40
0.0470000000000006
  0
CIRCLE
  5
100
330
1F
100
AcDbEntity
  8
0
  6
Continuous
 62
     7
370
    30
100
AcDbCircle
 10
72.1406713624
 20
11.6819616807
 30
0.0
 40
0.0469999999999953
  0
CIRCLE
  5
101
330
1F
100
AcDbEntity
  8
0
  6
Continuous
 62
     7
370
    30
100
AcDbCircle
 10
29.1096713624
 20
10.3999616807
 30
0.0
 40
0.0470000000000006
  0
CIRCLE
  5
102
330
1F
100
AcDbEntity
  8
0
  6
Continuous
 62
     7
370
    30
100
AcDbCircle
 10
50.3596713624
 20
10.3999616807
 30
0.0
 40
0.0470000000000006
  0
CIRCLE
  5
103
330
1F
100
AcDbEntity
  8
0
  6
Continuous
 62
     7
370
    30
100
AcDbCircle
 10
50.3596713624
 20
44.4629616807
 30
0.0
 40
0.046999999999997
  0
CIRCLE
  5
104
330
1F
100
AcDbEntity
  8
0
  6
Continuous
 62
     7
370
    30
100
AcDbCircle
 10
29.1096713624
 20
44.4629616807
 30
0.0
 40
0.0470000000000041
  0
LINE
  5
105
330
1F
100
AcDbEntity
  8
0
  6
Continuous
 62
     7
370
    30
100
AcDbLine
 10
72.541832863
 20
44.9939620711
 30
0.0
 11
72.541832863
 21
44.9539612532
 31
0.0
  0
LINE
  5
106
330
1F
100
AcDbEntity
  8
0
  6
Continuous
 62
     7
370
    30
100
AcDbLine
 10
6.9275098853
 20
44.9939620711
 30
0.0
 11
6.9275098853
 21
44.9539612532
 31
0.0
  0
SPLINE
  5
107
330
1F
100
AcDbEntity
  8
0
  6
Continuous
 62
     7
370
    30
100
AcDbSpline
210
0.0
220
0.0
230
1.0
 70
     8
 71
     3
 72
    11
 73
     7
 74
     0
 42
0.00000001
 43
0.00000001
 40
0.0
 40
0.0
 40
0.0
 40
0.0
 40
0.2499921617699899
 40
0.5000017239785194
 40
0.7499984198115479
 40
1.0
 40
1.0
 40
1.0
 40
1.0
 10
72.53967160796297
 20
44.92396181307865
 30
0.0
 10
72.54884380514761
 20
44.9241415865215
 30
0.0
 10
72.5671888379379
 20
44.92450114592015
 30
0.0
 10
72.59032774785355
 20
44.92504292279732
 30
0.0
 10
72.60651410866879
 20
44.92558175765718
 30
0.0
 10
72.60861927335512
 20
44.92594263011841
 30
0.0
 10
72.60967186598069
 20
44.92612306811165
 30
0.0
  0
LINE
  5
108
330
1F
100
AcDbEntity
  8
0
  6
Continuous
 62
     7
370
    30
100
AcDbLine
 10
72.609671866
 20
44.9261230681
 30
0.0
 11
72.5696710481
 21
44.9261230681
 31
0.0
  0
LINE
  5
109
330
1F
100
AcDbEntity
  8
0
  6
Continuous
 62
     7
370
    30
100
AcDbLine
 10
72.609671866
 20
9.9368003344
 30
0.0
 11
72.609671866
 21
44.9261230681
 31
0.0
  0
SPLINE
  5
10A
330
1F
100
AcDbEntity
  8
0
  6
Continuous
 62
     7
370
    30
100
AcDbSpline
210
0.0
220
0.0
230
1.0
 70
     8
 71
     3
 72
    11
 73
     7
 74
     0
 42
0.00000001
 43
0.00000001
 40
0.0
 40
0.0
 40
0.0
 40
0.0
 40
0.250001580188452
 40
0.4999982760214806
 40
0.75000783823001
 40
1.0
 40
1.0
 40
1.0
 40
1.0
 10
72.60967186598069
 20
9.936800334420294
 30
0.0
 10
72.6086192733551
 20
9.936980772413541
 30
0.0
 10
72.60651410866879
 20
9.93734164487476
 30
0.0
 10
72.59032774785354
 20
9.937880479734627
 30
0.0
 10
72.5671888379379
 20
9.9384222566118
 30
0.0
 10
72.54884380514761
 20
9.938781816010437
 30
0.0
 10
72.53967160796297
 20
9.938961589453292
 30
0.0
  0
LINE
  5
10B
330
1F
100
AcDbEntity
  8
0
  6
Continuous
 62
     7
370
    30
100
AcDbLine
 10
72.609671866
 20
9.9368003344
 30
0.0
 11
72.5696710481
 21
9.9368003344
 31
0.0
  0
LINE
  5
10C
330
1F
100
AcDbEntity
  8
0
  6
Continuous
 62
     7
370
    30
100
AcDbLine
 10
6.8596708823
 20
44.9261230681
 30
0.0
 11
6.8596708823
 21
44.8207964982
 31
0.0
  0
SPLINE
  5
10D
330
1F
100
AcDbEntity
  8
0
  6
Continuous
 62
     7
370
    30
100
AcDbSpline
210
0.0
220
0.0
230
1.0
 70
     8
 71
     3
 72
    11
 73
     7
 74
     0
 42
0.00000001
 43
0.00000001
 40
0.0
 40
0.0
 40
0.0
 40
0.0
 40
0.250001580188452
 40
0.4999982760214806
 40
0.75000783823001
 40
1.0
 40
1.0
 40
1.0
 40
1.0
 10
6.859670882269375
 20
44.92612306811165
 30
0.0
 10
6.860723474894947
 20
44.92594263011841
 30
0.0
 10
6.862828639581259
 20
44.92558175765718
 30
0.0
 10
6.879015000396518
 20
44.92504292279732
 30
0.0
 10
6.902153910312146
 20
44.92450114592015
 30
0.0
 10
6.920498943102444
 20
44.92414158652151
 30
0.0
 10
6.929671140287083
 20
44.92396181307866
 30
0.0
  0
SPLINE
  5
10E
330
1F
100
AcDbEntity
  8
0
  6
Continuous
 62
     7
370
    30
100
AcDbSpline
210
0.0
220
0.0
230
1.0
 70
     8
 71
     3
 72
    11
 73
     7
 74
     0
 42
0.00000001
 43
0.00000001
 40
0.0
 40
0.0
 40
0.0
 40
0.0
 40
0.2500022901751425
 40
0.5000023128231722
 40
0.7499990330353147
 40
1.0
 40
1.0
 40
1.0
 40
1.0
 10
72.53967160796297
 20
9.938961589453292
 30
0.0
 10
72.53985158662562
 20
9.929788938077024
 30
0.0
 10
72.54021154231849
 20
9.911443718520669
 30
0.0
 10
72.5407502193455
 20
9.888305327848514
 30
0.0
 10
72.54129393802651
 20
9.872119081963834
 30
0.0
 10
72.5416532203223
 20
9.87001392090509
 30
0.0
 10
72.54183286299596
 20
9.868961331435578
 30
0.0
  0
LINE
  5
10F
330
1F
100
AcDbEntity
  8
0
  6
Continuous
 62
     7
370
    30
100
AcDbLine
 10
6.9275098853
 20
9.8689613314
 30
0.0
 11
72.541832863
 21
9.8689613314
 31
0.0
  0
SPLINE
  5
110
330
1F
100
AcDbEntity
  8
0
  6
Continuous
 62
     7
370
    30
100
AcDbSpline
210
0.0
220
0.0
230
1.0
 70
     8
 71
     3
 72
    11
 73
     7
 74
     0
 42
0.00000001
 43
0.00000001
 40
0.0
 40
0.0
 40
0.0
 40
0.0
 40
0.2629250985148605
 40
0.5258457307356733
 40
0.7887698361161765
 40
1.0
 40
1.0
 40
1.0
 40
1.0
 10
6.92750988525409
 20
9.868961331435578
 30
0.0
 10
6.927689523060125
 20
9.870012011258055
 30
0.0
 10
6.92804879562072
 20
9.872113353055166
 30
0.0
 10
6.928592587314944
 20
9.888328243155168
 30
0.0
 10
6.929095700002925
 20
9.909848420746638
 30
0.0
 10
6.92942074000128
 20
9.926345362822698
 30
0.0
 10
6.929565541506974
 20
9.933694556965166
 30
0.0
  0
LINE
  5
111
330
1F
100
AcDbEntity
  8
0
  6
Continuous
 62
     7
370
    30
100
AcDbLine
 10
6.9275098853
 20
9.8689613314
 30
0.0
 11
6.9275098853
 21
9.9089621493
 31
0.0
  0
LINE
  5
112
330
1F
100
AcDbEntity
  8
0
  6
Continuous
 62
     7
370
    30
100
AcDbLine
 10
6.8596708823
 20
44.9261230681
 30
0.0
 11
6.8996717002
 21
44.9261230681
 31
0.0
  0
LINE
  5
113
330
1F
100
AcDbEntity
  8
0
  6
Continuous
 62
     7
370
    30
100
AcDbLine
 10
72.541832863
 20
9.8689613314
 30
0.0
 11
72.541832863
 21
9.9089621493
 31
0.0
  0
LINE
  5
114
330
1F
100
AcDbEntity
  8
0
  6
Continuous
 62
     7
370
    30
100
AcDbLine
 10
6.8886706539
 20
9.8948001796
 30
0.0
 11
6.8886706539
 21
44.7611226275
 31
0.0
  0
LINE
  5
115
330
1F
100
AcDbEntity
  8
0
  6
Continuous
 62
     7
370
    30
100
AcDbLine
 10
6.8886706539
 20
44.7611226275
 30
0.0
 11
6.8906723375
 21
44.7611226275
 31
0.0
  0
LINE
  5
116
330
1F
100
AcDbEntity
  8
0
  6
Continuous
 62
     7
370
    30
100
AcDbLine
 10
7.6096709649
 20
44.0421228268
 30
0.0
 11
6.8906723375
 21
44.7611226275
 31
0.0
  0
LINE
  5
117
330
1F
100
AcDbEntity
  8
0
  6
Continuous
 62
     7
370
    30
100
AcDbLine
 10
7.6096709649
 20
10.6137999803
 30
0.0
 11
7.6096709649
 21
44.0421228268
 31
0.0
  0
LINE
  5
118
330
1F
100
AcDbEntity
  8
0
  6
Continuous
 62
     7
370
    30
100
AcDbLine
 10
6.8906723375
 20
9.8948001796
 30
0.0
 11
7.6096709649
 21
10.6137999803
 31
0.0
  0
LINE
  5
119
330
1F
100
AcDbEntity
  8
0
  6
Continuous
 62
     7
370
    30
100
AcDbLine
 10
6.8886706539
 20
9.8948001796
 30
0.0
 11
6.8906723375
 21
9.8948001796
 31
0.0
  0
CIRCLE
  5
11A
330
1F
100
AcDbEntity
  8
0
  6
Continuous
 62
     7
370
    30
100
AcDbCircle
 10
7.2346713624
 20
32.5779616807
 30
0.0
 40
0.046875
  0
CIRCLE
  5
11B
330
1F
100
AcDbEntity
  8
0
  6
Continuous
 62
     7
370
    30
100
AcDbCircle
 10
7.2346713624
 20
22.0779616807
 30
0.0
 40
0.0468749999999956
  0
CIRCLE
  5
11C
330
1F
100
AcDbEntity
  8
0
  6
Continuous
 62
     7
370
    30
100
AcDbCircle
 10
7.2346713624
 20
11.5779616807
 30
0.0
 40
0.0468749999999956
  0
CIRCLE
  5
11D
330
1F
100
AcDbEntity
  8
0
  6
Continuous
 62
     7
370
    30
100
AcDbCircle
 10
7.2346713624
 20
43.0779616807
 30
0.0
 40
0.0468749999999956
  0
SPLINE
  5
11E
330
1F
100
AcDbEntity
  8
0
  6
Continuous
 62
     7
370
    30
100
AcDbSpline
210
0.0
220
0.0
230
1.0
 70
     8
 71
     3
 72
    11
 73
     7
 74
     0
 42
0.00000001
 43
0.00000001
 40
0.0
 40
0.0
 40
0.0
 40
0.0
 40
0.2499956474915564
 40
0.4999963545148222
 40
0.7500025564259036
 40
1.0
 40
1.0
 40
1.0
 40
1.0
 10
6.888670653928205
 20
9.894800179609666
 30
0.0
 10
6.879760305931558
 20
9.894897314034177
 30
0.0
 10
6.861939429606381
 20
9.895091584849045
 30
0.0
 10
6.839462908327023
 20
9.895380474301405
 30
0.0
 10
6.823736045771791
 20
9.895672368780156
 30
0.0
 10
6.821693389632872
 20
9.895865301513837
 30
0.0
 10
6.82067207945354
 20
9.895961766190918
 30
0.0
  0
SPLINE
  5
11F
330
1F
100
AcDbEntity
  8
0
  6
Continuous
 62
     7
370
    30
100
AcDbSpline
210
0.0
220
0.0
230
1.0
 70
     8
 71
     3
 72
    11
 73
     7
 74
     0
 42
0.00000001
 43
0.00000001
 40
0.0
 40
0.0
 40
0.0
 40
0.0
 40
0.2499974738212024
 40
0.5000035849932954
 40
0.7500044432538167
 40
1.0
 40
1.0
 40
1.0
 40
1.0
 10
6.82067207945354
 20
44.75996221428268
 30
0.0
 10
6.821693388221775
 20
44.76005885353317
 30
0.0
 10
6.823736041044186
 20
44.76025213537304
 30
0.0
 10
6.839462921702605
 20
44.76054141115372
 30
0.0
 10
6.861939414183469
 20
44.7608332125578
 30
0.0
 10
6.87976030366554
 20
44.76102615656397
 30
0.0
 10
6.888670653928205
 20
44.76112262754415
 30
0.0
  0
LINE
  5
120
330
1F
100
AcDbEntity
  8
0
  6
Continuous
 62
     7
370
    30
100
AcDbLine
 10
6.8206720795
 20
9.8959617662
 30
0.0
 11
6.8206720795
 21
44.7599622143
 31
0.0
  0
LINE
  5
121
330
1F
100
AcDbEntity
  8
0
  6
Continuous
 62
     7
370
    30
100
AcDbLine
 10
6.8886706539
 20
9.8279620184
 30
0.0
 11
6.8886706539
 21
9.8669619945
 31
0.0
  0
LINE
  5
122
330
1F
100
AcDbEntity
  8
0
  6
Continuous
 62
     7
370
    30
100
AcDbLine
 10
6.8886706539
 20
9.8669619945
 30
0.0
 11
7.6096709649
 21
9.8669619945
 31
0.0
  0
LINE
  5
123
330
1F
100
AcDbEntity
  8
0
  6
Continuous
 62
     7
370
    30
100
AcDbLine
 10
7.6096709649
 20
9.8279620184
 30
0.0
 11
7.6096709649
 21
9.8669619945
 31
0.0
  0
LINE
  5
124
330
1F
100
AcDbEntity
  8
0
  6
Continuous
 62
     7
370
    30
100
AcDbLine
 10
6.8886706539
 20
9.8279620184
 30
0.0
 11
7.6096709649
 21
9.8279620184
 31
0.0
  0
SPLINE
  5
125
330
1F
100
AcDbEntity
  8
0
  6
Continuous
 62
     7
370
    30
100
AcDbSpline
210
0.0
220
0.0
230
1.0
 70
     8
 71
     3
 72
    11
 73
     7
 74
     0
 42
0.00000001
 43
0.00000001
 40
0.0
 40
0.0
 40
0.0
 40
0.0
 40
0.2500197620959857
 40
0.500015273200138
 40
0.75001070121304
 40
1.0
 40
1.0
 40
1.0
 40
1.0
 10
6.859670882269375
 20
9.895961766190918
 30
0.0
 10
6.860106986573444
 20
9.892161437291774
 30
0.0
 10
6.860979152881062
 20
9.88456114811133
 30
0.0
 10
6.867686018946185
 20
9.874976023735014
 30
0.0
 10
6.877270774642094
 20
9.868269066481517
 30
0.0
 10
6.88487072522166
 20
9.867397681621181
 30
0.0
 10
6.888670653928205
 20
9.86696199453209
 30
0.0
  0
SPLINE
  5
126
330
1F
100
AcDbEntity
  8
0
  6
Continuous
 62
     7
370
    30
100
AcDbSpline
210
0.0
220
0.0
230
1.0
 70
     8
 71
     3
 72
    11
 73
     7
 74
     0
 42
0.00000001
 43
0.00000001
 40
0.0
 40
0.0
 40
0.0
 40
0.0
 40
0.2500020949256075
 40
0.5000074212836976
 40
0.7500065909637474
 40
1.0
 40
1.0
 40
1.0
 40
1.0
 10
6.82067207945354
 20
9.895961766190918
 30
0.0
 10
6.821693357640244
 20
9.887050961796229
 30
0.0
 10
6.823735927214327
 20
9.869229237829162
 30
0.0
 10
6.839462884026417
 20
9.846752965803823
 30
0.0
 10
6.861939390470132
 20
9.831027710424088
 30
0.0
 10
6.879760301216471
 20
9.82898390788982
 30
0.0
 10
6.888670653928201
 20
9.827962018396475
 30
0.0
  0
SPLINE
  5
127
330
1F
100
AcDbEntity
  8
0
  6
Continuous
 62
     7
370
    30
100
AcDbSpline
210
0.0
220
0.0
230
1.0
 70
     8
 71
     3
 72
    10
 73
     6
 74
     0
 42
0.00000001
 43
0.00000001
 40
0.0
 40
0.0
 40
0.0
 40
0.0
 40
0.2297736679600441
 40
0.6149043162506005
 40
0.9999999999999999
 40
0.9999999999999999
 40
0.9999999999999999
 40
0.9999999999999999
 10
6.87377887929259
 20
44.78421942739462
 30
0.0
 10
6.871823082785922
 20
44.78307786910342
 30
0.0
 10
6.866589116142427
 20
44.78002291016598
 30
0.0
 10
6.861038218908988
 20
44.77125287371999
 30
0.0
 10
6.860126647355607
 20
44.76372565352867
 30
0.0
 10
6.859670882269375
 20
44.75996221428268
 30
0.0
  0
SPLINE
  5
128
330
1F
100
AcDbEntity
  8
0
  6
Continuous
 62
     7
370
    30
100
AcDbSpline
210
0.0
220
0.0
230
1.0
 70
     8
 71
     3
 72
    11
 73
     7
 74
     0
 42
0.00000001
 43
0.00000001
 40
0.0
 40
0.0
 40
0.0
 40
0.0
 40
0.1262758235973402
 40
0.4175178992153239
 40
0.7087671471918944
 40
1.0
 40
1.0
 40
1.0
 40
1.0
 10
6.873931410863865
 20
44.82502983594929
 30
0.0
 10
6.87010673596617
 20
44.82447142938694
 30
0.0
 10
6.857460845541736
 20
44.82262511606915
 30
0.0
 10
6.839545241863616
 20
44.8089248606332
 30
0.0
 10
6.823715576581664
 20
44.78675514021553
 30
0.0
 10
6.821686559459285
 20
44.76889302200483
 30
0.0
 10
6.82067207945354
 20
44.75996221428268
 30
0.0
  0
SPLINE
  5
129
330
1F
100
AcDbEntity
  8
0
  6
Continuous
 62
     7
370
    30
100
AcDbSpline
210
0.0
220
0.0
230
1.0
 70
     8
 71
     3
 72
    10
 73
     6
 74
     0
 42
0.00000001
 43
0.00000001
 40
0.0
 40
0.0
 40
0.0
 40
0.0
 40
0.303900067048314
 40
0.6744507601705585
 40
1.0
 40
1.0
 40
1.0
 40
1.0
 10
72.56967104807354
 20
9.897961103094408
 30
0.0
 10
72.5690998599821
 20
9.899720872594244
 30
0.0
 10
72.56783221221154
 20
9.903626359975064
 30
0.0
 10
72.55800489207499
 20
9.909430151924335
 30
0.0
 10
72.54638491230682
 20
9.913468229926677
 30
0.0
 10
72.54095052652212
 20
9.915356742138503
 30
0.0
  0
LINE
  5
12A
330
1F
100
AcDbEntity
  8
0
  6
Continuous
 62
     7
370
    30
100
AcDbLine
 10
72.5696710481
 20
9.8979611031
 30
0.0
 11
72.5696710481
 21
9.9368003344
 31
0.0
  0
LINE
  5
12B
330
1F
100
AcDbEntity
  8
0
  6
Continuous
 62
     7
370
    30
100
AcDbLine
 10
72.541832863
 20
9.8979611031
 30
0.0
 11
72.5696710481
 21
9.8979611031
 31
0.0
  0
LINE
  5
12C
330
1F
100
AcDbEntity
  8
0
  6
Continuous
 62
     7
370
    30
100
AcDbLine
 10
71.8196709655
 20
9.8289616868
 30
0.0
 11
71.8196709655
 21
9.8689613314
 31
0.0
  0
LINE
  5
12D
330
1F
100
AcDbEntity
  8
0
  6
Continuous
 62
     7
370
    30
100
AcDbLine
 10
72.5006704585
 20
9.8689613314
 30
0.0
 11
72.5006704585
 21
9.8289616868
 31
0.0
  0
LINE
  5
12E
330
1F
100
AcDbEntity
  8
0
  6
Continuous
 62
     7
370
    30
100
AcDbLine
 10
71.8196709655
 20
9.8289616868
 30
0.0
 11
72.5006704585
 21
9.8289616868
 31
0.0
  0
ARC
  5
12F
330
1F
100
AcDbEntity
  8
0
  6
Continuous
 62
     7
370
    30
100
AcDbCircle
 10
72.5006713624
 20
9.8979616807
 30
0.0
 40
0.0690000000000026
100
AcDbArc
 50
270.0
 51
0.0
  0
ARC
  5
130
330
1F
100
AcDbEntity
  8
0
  6
Continuous
 62
     7
370
    30
100
AcDbCircle
 10
16.8911713624
 20
48.039977037
 30
0.0
 40
0.4375000000000101
100
AcDbArc
 50
278.2793756981
 51
81.7206243019
  0
LINE
  5
131
330
1F
100
AcDbEntity
  8
0
  6
Continuous
 62
     7
370
    30
100
AcDbLine
 10
16.9541703764
 20
48.409918343
 30
0.0
 11
16.9541703764
 21
48.4729162286
 31
0.0
  0
LINE
  5
132
330
1F
100
AcDbEntity
  8
0
  6
Continuous
 62
     7
370
    30
100
AcDbLine
 10
16.8281722586
 20
48.409918343
 30
0.0
 11
16.9541703764
 21
48.409918343
 31
0.0
  0
LINE
  5
133
330
1F
100
AcDbEntity
  8
0
  6
Continuous
 62
     7
370
    30
100
AcDbLine
 10
16.8281722586
 20
48.4729162286
 30
0.0
 11
16.8281722586
 21
48.409918343
 31
0.0
  0
ARC
  5
134
330
1F
100
AcDbEntity
  8
0
  6
Continuous
 62
     7
370
    30
100
AcDbCircle
 10
16.8911713624
 20
48.039977037
 30
0.0
 40
0.4375000000000101
100
AcDbArc
 50
98.2793756981
 51
261.7206243019
  0
LINE
  5
135
330
1F
100
AcDbEntity
  8
0
  6
Continuous
 62
     7
370
    30
100
AcDbLine
 10
16.8281722586
 20
47.66976476
 30
0.0
 11
16.8281722586
 21
47.607036738
 31
0.0
  0
LINE
  5
136
330
1F
100
AcDbEntity
  8
0
  6
Continuous
 62
     7
370
    30
100
AcDbLine
 10
16.9541703764
 20
47.6700369702
 30
0.0
 11
16.8281722586
 21
47.66976476
 31
0.0
  0
LINE
  5
137
330
1F
100
AcDbEntity
  8
0
  6
Continuous
 62
     7
370
    30
100
AcDbLine
 10
16.9541703764
 20
47.607036738
 30
0.0
 11
16.9541703764
 21
47.6700369702
 31
0.0
  0
ARC
  5
138
330
1F
100
AcDbEntity
  8
0
  6
Continuous
 62
     7
370
    30
100
AcDbCircle
 10
22.8911713624
 20
48.039977037
 30
0.0
 40
0.4375000000000036
100
AcDbArc
 50
278.2793756981
 51
81.7206243019
  0
LINE
  5
139
330
1F
100
AcDbEntity
  8
0
  6
Continuous
 62
     7
370
    30
100
AcDbLine
 10
22.9541710372
 20
48.409918343
 30
0.0
 11
22.9541710372
 21
48.4729162286
 31
0.0
  0
LINE
  5
13A
330
1F
100
AcDbEntity
  8
0
  6
Continuous
 62
     7
370
    30
100
AcDbLine
 10
22.8281717461
 20
48.409918343
 30
0.0
 11
22.9541710372
 21
48.409918343
 31
0.0
  0
LINE
  5
13B
330
1F
100
AcDbEntity
  8
0
  6
Continuous
 62
     7
370
    30
100
AcDbLine
 10
22.8281717461
 20
48.4729162286
 30
0.0
 11
22.8281717461
 21
48.409918343
 31
0.0
  0
ARC
  5
13C
330
1F
100
AcDbEntity
  8
0
  6
Continuous
 62
     7
370
    30
100
AcDbCircle
 10
22.8911713624
 20
48.039977037
 30
0.0
 40
0.4375000000000031
100
AcDbArc
 50
98.2793756981
 51
261.7206243019
  0
LINE
  5
13D
330
1F
100
AcDbEntity
  8
0
  6
Continuous
 62
     7
370
    30
100
AcDbLine
 10
22.8281717461
 20
47.66976476
 30
0.0
 11
22.8281717461
 21
47.607036738
 31
0.0
  0
LINE
  5
13E
330
1F
100
AcDbEntity
  8
0
  6
Continuous
 62
     7
370
    30
100
AcDbLine
 10
22.9541710372
 20
47.6700369702
 30
0.0
 11
22.8281717461
 21
47.66976476
 31
0.0
  0
LINE
  5
13F
330
1F
100
AcDbEntity
  8
0
  6
Continuous
 62
     7
370
    30
100
AcDbLine
 10
22.9541710372
 20
47.607036738
 30
0.0
 11
22.9541710372
 21
47.6700369702
 31
0.0
  0
LINE
  5
140
330
1F
100
AcDbEntity
  8
0
  6
Continuous
 62
     7
370
    30
100
AcDbLine
 10
10.9731868826
 20
51.1334774936
 30
0.0
 11
10.9061551236
 21
51.1334774936
 31
0.0
  0
LINE
  5
141
330
1F
100
AcDbEntity
  8
0
  6
Continuous
 62
     7
370
    30
100
AcDbLine
 10
28.7861869186
 20
51.1334774936
 30
0.0
 11
28.8761869989
 21
51.1334774936
 31
0.0
  0
LINE
  5
142
330
1F
100
AcDbEntity
  8
0
  6
Continuous
 62
     7
370
    30
100
AcDbLine
 10
10.8711549946
 20
44.9939620711
 30
0.0
 11
10.8711549946
 21
51.1334774936
 31
0.0
  0
LINE
  5
143
330
1F
100
AcDbEntity
  8
0
  6
Continuous
 62
     7
370
    30
100
AcDbLine
 10
10.9061551236
 20
51.1334774936
 30
0.0
 11
10.8711549946
 21
51.1334774936
 31
0.0
  0
LINE
  5
144
330
1F
100
AcDbEntity
  8
0
  6
Continuous
 62
     7
370
    30
100
AcDbLine
 10
28.8761869989
 20
51.1334774936
 30
0.0
 11
28.9111865413
 21
51.1334774936
 31
0.0
  0
LINE
  5
145
330
1F
100
AcDbEntity
  8
0
  6
Continuous
 62
     7
370
    30
100
AcDbLine
 10
28.9111865413
 20
51.1334774936
 30
0.0
 11
28.9111865413
 21
44.9939620711
 31
0.0
  0
LINE
  5
146
330
1F
100
AcDbEntity
  8
0
  6
Continuous
 62
     7
370
    30
100
AcDbLine
 10
22.8281717461
 20
47.66976476
 30
0.0
 11
22.8281717461
 21
47.6700369702
 31
0.0
  0
LINE
  5
147
330
1F
100
AcDbEntity
  8
0
  6
Continuous
 62
     7
370
    30
100
AcDbLine
 10
22.8281717461
 20
47.6700369702
 30
0.0
 11
22.9541029847
 21
47.6700369702
 31
0.0
  0
LINE
  5
148
330
1F
100
AcDbEntity
  8
0
  6
Continuous
 62
     7
370
    30
100
AcDbLine
 10
16.8281722586
 20
47.66976476
 30
0.0
 11
16.8281722586
 21
47.6700369702
 31
0.0
  0
LINE
  5
149
330
1F
100
AcDbEntity
  8
0
  6
Continuous
 62
     7
370
    30
100
AcDbLine
 10
16.8281722586
 20
47.6700369702
 30
0.0
 11
16.9541046705
 21
47.6700369702
 31
0.0
  0
SPLINE
  5
14A
330
1F
100
AcDbEntity
  8
0
  6
Continuous
 62
     7
370
    30
100
AcDbSpline
210
0.0
220
0.0
230
1.0
 70
     8
 71
     3
 72
    11
 73
     7
 74
     0
 42
0.00000001
 43
0.00000001
 40
0.0
 40
0.0
 40
0.0
 40
0.0
 40
0.2500027174010914
 40
0.5000061833982741
 40
0.750006690517432
 40
0.9999999999999999
 40
0.9999999999999999
 40
0.9999999999999999
 40
0.9999999999999999
 10
28.91118654127875
 20
9.854961279832036
 30
0.0
 10
28.91066053810263
 20
9.855375462183435
 30
0.0
 10
28.90960853017536
 20
9.856203828126432
 30
0.0
 10
28.90151444848607
 20
9.857446364309942
 30
0.0
 10
28.88994552855095
 20
9.858688896379888
 30
0.0
 10
28.88077313145657
 20
9.859517277712316
 30
0.0
 10
28.87618699892979
 20
9.859931462416062
 30
0.0
  0
LINE
  5
14B
330
1F
100
AcDbEntity
  8
0
  6
Continuous
 62
     7
370
    30
100
AcDbLine
 10
28.9111865413
 20
9.8549612798
 30
0.0
 11
28.9111865413
 21
3.5644466417
 31
0.0
  0
LINE
  5
14C
330
1F
100
AcDbEntity
  8
0
  6
Continuous
 62
     7
370
    30
100
AcDbLine
 10
28.8761869989
 20
3.5644466417
 30
0.0
 11
28.9111865413
 21
3.5644466417
 31
0.0
  0
LINE
  5
14D
330
1F
100
AcDbEntity
  8
0
  6
Continuous
 62
     7
370
    30
100
AcDbLine
 10
28.8761869989
 20
9.8599314624
 30
0.0
 11
28.8761869989
 21
3.5644466417
 31
0.0
  0
ARC
  5
14E
330
1F
100
AcDbEntity
  8
0
  6
Continuous
 62
     7
370
    30
100
AcDbCircle
 10
22.8911713624
 20
6.6579463244
 30
0.0
 40
0.4375000000000017
100
AcDbArc
 50
278.2793756981
 51
81.7206243019
  0
LINE
  5
14F
330
1F
100
AcDbEntity
  8
0
  6
Continuous
 62
     7
370
    30
100
AcDbLine
 10
22.9541710372
 20
7.0278859918
 30
0.0
 11
22.9541710372
 21
7.090886224
 31
0.0
  0
LINE
  5
150
330
1F
100
AcDbEntity
  8
0
  6
Continuous
 62
     7
370
    30
100
AcDbLine
 10
22.8281717461
 20
7.0278859918
 30
0.0
 11
22.9541710372
 21
7.0278859918
 31
0.0
  0
LINE
  5
151
330
1F
100
AcDbEntity
  8
0
  6
Continuous
 62
     7
370
    30
100
AcDbLine
 10
22.8281717461
 20
7.090886224
 30
0.0
 11
22.8281717461
 21
7.0278859918
 31
0.0
  0
ARC
  5
152
330
1F
100
AcDbEntity
  8
0
  6
Continuous
 62
     7
370
    30
100
AcDbCircle
 10
22.8911713624
 20
6.6579463244
 30
0.0
 40
0.4375000000000022
100
AcDbArc
 50
98.2793756981
 51
261.7206243019
  0
LINE
  5
153
330
1F
100
AcDbEntity
  8
0
  6
Continuous
 62
     7
370
    30
100
AcDbLine
 10
22.8281717461
 20
6.2877347554
 30
0.0
 11
22.8281717461
 21
6.2250055601
 31
0.0
  0
LINE
  5
154
330
1F
100
AcDbEntity
  8
0
  6
Continuous
 62
     7
370
    30
100
AcDbLine
 10
22.9541710372
 20
6.2880057923
 30
0.0
 11
22.8281717461
 21
6.2877347554
 31
0.0
  0
LINE
  5
155
330
1F
100
AcDbEntity
  8
0
  6
Continuous
 62
     7
370
    30
100
AcDbLine
 10
22.9541710372
 20
6.2250055601
 30
0.0
 11
22.9541710372
 21
6.2880057923
 31
0.0
  0
ARC
  5
156
330
1F
100
AcDbEntity
  8
0
  6
Continuous
 62
     7
370
    30
100
AcDbCircle
 10
16.8911713624
 20
6.6579463244
 30
0.0
 40
0.4375000000000027
100
AcDbArc
 50
278.2793756981
 51
81.7206243019
  0
LINE
  5
157
330
1F
100
AcDbEntity
  8
0
  6
Continuous
 62
     7
370
    30
100
AcDbLine
 10
16.9541703764
 20
7.0278859918
 30
0.0
 11
16.9541703764
 21
7.090886224
 31
0.0
  0
LINE
  5
158
330
1F
100
AcDbEntity
  8
0
  6
Continuous
 62
     7
370
    30
100
AcDbLine
 10
16.8281722586
 20
7.0278859918
 30
0.0
 11
16.9541703764
 21
7.0278859918
 31
0.0
  0
LINE
  5
159
330
1F
100
AcDbEntity
  8
0
  6
Continuous
 62
     7
370
    30
100
AcDbLine
 10
16.8281722586
 20
7.090886224
 30
0.0
 11
16.8281722586
 21
7.0278859918
 31
0.0
  0
ARC
  5
15A
330
1F
100
AcDbEntity
  8
0
  6
Continuous
 62
     7
370
    30
100
AcDbCircle
 10
16.8911713624
 20
6.6579463244
 30
0.0
 40
0.4375000000000022
100
AcDbArc
 50
98.2793756981
 51
261.7206243019
  0
LINE
  5
15B
330
1F
100
AcDbEntity
  8
0
  6
Continuous
 62
     7
370
    30
100
AcDbLine
 10
16.8281722586
 20
6.2877347554
 30
0.0
 11
16.8281722586
 21
6.2250055601
 31
0.0
  0
LINE
  5
15C
330
1F
100
AcDbEntity
  8
0
  6
Continuous
 62
     7
370
    30
100
AcDbLine
 10
16.9541703764
 20
6.2880057923
 30
0.0
 11
16.8281722586
 21
6.2877347554
 31
0.0
  0
LINE
  5
15D
330
1F
100
AcDbEntity
  8
0
  6
Continuous
 62
     7
370
    30
100
AcDbLine
 10
16.9541703764
 20
6.2250055601
 30
0.0
 11
16.9541703764
 21
6.2880057923
 31
0.0
  0
LINE
  5
15E
330
1F
100
AcDbEntity
  8
0
  6
Continuous
 62
     7
370
    30
100
AcDbLine
 10
28.7861869186
 20
3.5644466417
 30
0.0
 11
28.8761869989
 21
3.5644466417
 31
0.0
  0
LINE
  5
15F
330
1F
100
AcDbEntity
  8
0
  6
Continuous
 62
     7
370
    30
100
AcDbLine
 10
10.9731868826
 20
3.5644466417
 30
0.0
 11
10.9061551236
 21
3.5644466417
 31
0.0
  0
LINE
  5
160
330
1F
100
AcDbEntity
  8
0
  6
Continuous
 62
     7
370
    30
100
AcDbLine
 10
10.9061551236
 20
3.5644466417
 30
0.0
 11
10.9061551236
 21
9.8599314624
 31
0.0
  0
LINE
  5
161
330
1F
100
AcDbEntity
  8
0
  6
Continuous
 62
     7
370
    30
100
AcDbLine
 10
10.9061551236
 20
9.8599314624
 30
0.0
 11
10.9151873393
 21
9.8689613314
 31
0.0
  0
LINE
  5
162
330
1F
100
AcDbEntity
  8
0
  6
Continuous
 62
     7
370
    30
100
AcDbLine
 10
28.8761869989
 20
9.8599314624
 30
0.0
 11
28.8671559566
 21
9.8689613314
 31
0.0
  0
LINE
  5
163
330
1F
100
AcDbEntity
  8
0
  6
Continuous
 62
     7
370
    30
100
AcDbLine
 10
10.9061551236
 20
3.5644466417
 30
0.0
 11
10.8711549946
 21
3.5644466417
 31
0.0
  0
LINE
  5
164
330
1F
100
AcDbEntity
  8
0
  6
Continuous
 62
     7
370
    30
100
AcDbLine
 10
10.8711549946
 20
3.5644466417
 30
0.0
 11
10.8711549946
 21
9.8549612798
 31
0.0
  0
SPLINE
  5
165
330
1F
100
AcDbEntity
  8
0
  6
Continuous
 62
     7
370
    30
100
AcDbSpline
210
0.0
220
0.0
230
1.0
 70
     8
 71
     3
 72
    11
 73
     7
 74
     0
 42
0.00000001
 43
0.00000001
 40
0.0
 40
0.0
 40
0.0
 40
0.0
 40
0.2500118829260943
 40
0.5000123610748176
 40
0.7500246547283789
 40
1.0
 40
1.0
 40
1.0
 40
1.0
 10
10.87115499459593
 20
9.854961279832036
 30
0.0
 10
10.87168176834979
 20
9.855375454161388
 30
0.0
 10
10.87273529182767
 20
9.856203783926723
 30
0.0
 10
10.88082811357495
 20
9.857446424644467
 30
0.0
 10
10.89239742194417
 20
9.858688801158495
 30
0.0
 10
10.90156944898454
 20
9.859517262404246
 30
0.0
 10
10.90615512360478
 20
9.859931462416062
 30
0.0
  0
LINE
  5
166
330
1F
100
AcDbEntity
  8
0
  6
Continuous
 62
     7
370
    30
100
AcDbLine
 10
10.8711549946
 20
9.8689613314
 30
0.0
 11
10.8711549946
 21
9.8549612798
 31
0.0
  0
LINE
  5
167
330
1F
100
AcDbEntity
  8
0
  6
Continuous
 62
     7
370
    30
100
AcDbLine
 10
10.9051554552
 20
9.8689613314
 30
0.0
 11
10.9051554552
 21
9.8598387702
 31
0.0
  0
LINE
  5
168
330
1F
100
AcDbEntity
  8
0
  6
Continuous
 62
     7
370
    30
100
AcDbLine
 10
28.9111865413
 20
9.8689613314
 30
0.0
 11
28.9111865413
 21
9.8549612798
 31
0.0
  0
LINE
  5
169
330
1F
100
AcDbEntity
  8
0
  6
Continuous
 62
     7
370
    30
100
AcDbLine
 10
28.8771866674
 20
9.8689613314
 30
0.0
 11
28.8771866674
 21
9.8598387702
 31
0.0
  0
LINE
  5
16A
330
1F
100
AcDbEntity
  8
0
  6
Continuous
 62
     7
370
    30
100
AcDbLine
 10
16.8281722586
 20
6.2880057923
 30
0.0
 11
16.9541046705
 21
6.2880057923
 31
0.0
  0
LINE
  5
16B
330
1F
100
AcDbEntity
  8
0
  6
Continuous
 62
     7
370
    30
100
AcDbLine
 10
16.8281722586
 20
6.2877347554
 30
0.0
 11
16.8281722586
 21
6.2880057923
 31
0.0
  0
LINE
  5
16C
330
1F
100
AcDbEntity
  8
0
  6
Continuous
 62
     7
370
    30
100
AcDbLine
 10
22.8281717461
 20
6.2880057923
 30
0.0
 11
22.9541029847
 21
6.2880057923
 31
0.0
  0
LINE
  5
16D
330
1F
100
AcDbEntity
  8
0
  6
Continuous
 62
     7
370
    30
100
AcDbLine
 10
22.8281717461
 20
6.2877347554
 30
0.0
 11
22.8281717461
 21
6.2880057923
 31
0.0
  0
LINE
  5
16E
330
1F
100
AcDbEntity
  8
0
  6
Continuous
 62
     7
370
    30
100
AcDbLine
 10
28.7861869186
 20
51.2879919753
 30
0.0
 11
28.7861869186
 21
51.3249914412
 31
0.0
  0
LINE
  5
16F
330
1F
100
AcDbEntity
  8
0
  6
Continuous
 62
     7
370
    30
100
AcDbLine
 10
10.9731868826
 20
51.2879919753
 30
0.0
 11
28.7861869186
 21
51.2879919753
 31
0.0
  0
LINE
  5
170
330
1F
100
AcDbEntity
  8
0
  6
Continuous
 62
     7
370
    30
100
AcDbLine
 10
10.9731868826
 20
51.3249914412
 30
0.0
 11
10.9731868826
 21
51.2879919753
 31
0.0
  0
LINE
  5
171
330
1F
100
AcDbEntity
  8
0
  6
Continuous
 62
     7
370
    30
100
AcDbLine
 10
10.9731868826
 20
51.3249914412
 30
0.0
 11
28.7861869186
 21
51.3249914412
 31
0.0
  0
LINE
  5
172
330
1F
100
AcDbEntity
  8
0
  6
Continuous
 62
     7
370
    30
100
AcDbLine
 10
10.9731868826
 20
50.8869935143
 30
0.0
 11
28.7861869186
 21
50.8869935143
 31
0.0
  0
LINE
  5
173
330
1F
100
AcDbEntity
  8
0
  6
Continuous
 62
     7
370
    30
100
AcDbLine
 10
10.9731868826
 20
50.8869935143
 30
0.0
 11
10.9731868826
 21
51.2879919753
 31
0.0
  0
LINE
  5
174
330
1F
100
AcDbEntity
  8
0
  6
Continuous
 62
     7
370
    30
100
AcDbLine
 10
28.7861869186
 20
51.2879919753
 30
0.0
 11
28.7861869186
 21
50.8869935143
 31
0.0
  0
LINE
  5
175
330
1F
100
AcDbEntity
  8
0
  6
Continuous
 62
     7
370
    30
100
AcDbLine
 10
10.9731868826
 20
3.810930621
 30
0.0
 11
10.9731868826
 21
3.4099298134
 31
0.0
  0
LINE
  5
176
330
1F
100
AcDbEntity
  8
0
  6
Continuous
 62
     7
370
    30
100
AcDbLine
 10
28.7861869186
 20
3.810930621
 30
0.0
 11
28.7861869186
 21
3.4099298134
 31
0.0
  0
LINE
  5
177
330
1F
100
AcDbEntity
  8
0
  6
Continuous
 62
     7
370
    30
100
AcDbLine
 10
28.7861869186
 20
3.4099298134
 30
0.0
 11
10.9731868826
 21
3.4099298134
 31
0.0
  0
LINE
  5
178
330
1F
100
AcDbEntity
  8
0
  6
Continuous
 62
     7
370
    30
100
AcDbLine
 10
10.9731868826
 20
3.810930621
 30
0.0
 11
28.7861869186
 21
3.810930621
 31
0.0
  0
LINE
  5
179
330
1F
100
AcDbEntity
  8
0
  6
Continuous
 62
     7
370
    30
100
AcDbLine
 10
10.9731868826
 20
3.4099298134
 30
0.0
 11
10.9731868826
 21
3.3729303475
 31
0.0
  0
LINE
  5
17A
330
1F
100
AcDbEntity
  8
0
  6
Continuous
 62
     7
370
    30
100
AcDbLine
 10
28.7861869186
 20
3.3729303475
 30
0.0
 11
28.7861869186
 21
3.4099298134
 31
0.0
  0
LINE
  5
17B
330
1F
100
AcDbEntity
  8
0
  6
Continuous
 62
     7
370
    30
100
AcDbLine
 10
28.7861869186
 20
3.3729303475
 30
0.0
 11
10.9731868826
 21
3.3729303475
 31
0.0
  0
LINE
  5
17C
330
1F
100
AcDbEntity
  8
0
  6
Continuous
 62
     7
370
    30
100
AcDbLine
 10
10.9731868826
 20
51.2299619256
 30
0.0
 11
10.9641875199
 21
51.2299619256
 31
0.0
  0
LINE
  5
17D
330
1F
100
AcDbEntity
  8
0
  6
Continuous
 62
     7
370
    30
100
AcDbLine
 10
10.9641875199
 20
51.2299619256
 30
0.0
 11
10.9641875199
 21
51.1334774936
 31
0.0
  0
SPLINE
  5
17E
330
1F
100
AcDbEntity
  8
0
  6
Continuous
 62
     7
370
    30
100
AcDbSpline
210
0.0
220
0.0
230
1.0
 70
     8
 71
     3
 72
     9
 73
     5
 74
     0
 42
0.00000001
 43
0.00000001
 40
0.0
 40
0.0
 40
0.0
 40
0.0
 40
0.5448910052963191
 40
1.0
 40
1.0
 40
1.0
 40
1.0
 10
10.96418751987626
 20
51.2289622571755
 30
0.0
 10
10.9646283017895
 20
51.23361149997258
 30
0.0
 10
10.96543723772156
 20
51.24214392710369
 30
0.0
 10
10.97076305516078
 20
51.24880553975217
 30
0.0
 10
10.97318688258152
 20
51.25183729958773
 30
0.0
  0
LINE
  5
17F
330
1F
100
AcDbEntity
  8
0
  6
Continuous
 62
     7
370
    30
100
AcDbLine
 10
10.9731868826
 20
3.4679622097
 30
0.0
 11
10.9641875199
 21
3.4679622097
 31
0.0
  0
LINE
  5
180
330
1F
100
AcDbEntity
  8
0
  6
Continuous
 62
     7
370
    30
100
AcDbLine
 10
10.9641875199
 20
3.4679622097
 30
0.0
 11
10.9641875199
 21
3.5644466417
 31
0.0
  0
SPLINE
  5
181
330
1F
100
AcDbEntity
  8
0
  6
Continuous
 62
     7
370
    30
100
AcDbSpline
210
0.0
220
0.0
230
1.0
 70
     8
 71
     3
 72
     9
 73
     5
 74
     0
 42
0.00000001
 43
0.00000001
 40
0.0
 40
0.0
 40
0.0
 40
0.0
 40
0.4550673200457752
 40
1.0
 40
1.0
 40
1.0
 40
1.0
 10
10.97318688258152
 20
3.446084489056947
 30
0.0
 10
10.97076305536511
 20
3.449116254651274
 30
0.0
 10
10.96543675064131
 20
3.455778490019049
 30
0.0
 10
10.96462815180639
 20
3.464311799114476
 30
0.0
 10
10.96418751987626
 20
3.46896187810873
 30
0.0
  0
LINE
  5
182
330
1F
100
AcDbEntity
  8
0
  6
Continuous
 62
     8
370
    30
100
AcDbLine
 10
6.1606656239
 20
35.6046817369
 30
0.0
 11
6.1606656239
 21
35.1756045603
 31
0.0
  0
LINE
  5
183
330
1F
100
AcDbEntity
  8
0
  6
Continuous
 62
     8
370
    30
100
AcDbLine
 10
6.1046771507
 20
35.1758075446
 30
0.0
 11
6.1046771507
 21
35.6067197933
 31
0.0
  0
LINE
  5
184
330
1F
100
AcDbEntity
  8
0
  6
Continuous
 62
     8
370
    30
100
AcDbLine
 10
6.1606656239
 20
36.3547217123
 30
0.0
 11
6.1606656239
 21
35.9256187227
 31
0.0
  0
LINE
  5
185
330
1F
100
AcDbEntity
  8
0
  6
Continuous
 62
     8
370
    30
100
AcDbLine
 10
6.1046771507
 20
35.9258088005
 30
0.0
 11
6.1046771507
 21
36.3567808886
 31
0.0
  0
LINE
  5
186
330
1F
100
AcDbEntity
  8
0
  6
Continuous
 62
     8
370
    30
100
AcDbLine
 10
6.9296711403
 20
9.8139619668
 30
0.0
 11
6.9296711403
 21
9.8279620184
 31
0.0
  0
LINE
  5
187
330
1F
100
AcDbEntity
  8
0
  6
Continuous
 62
     8
370
    30
100
AcDbLine
 10
6.9296711403
 20
9.8669619945
 30
0.0
 11
6.9296711403
 21
9.8689613314
 31
0.0
  0
LINE
  5
188
330
1F
100
AcDbEntity
  8
0
  6
Continuous
 62
     8
370
    30
100
AcDbLine
 10
72.539671608
 20
9.841041014
 30
0.0
 11
72.539671608
 21
9.8139619668
 31
0.0
  0
LINE
  5
189
330
1F
100
AcDbEntity
  8
0
  6
Continuous
 62
     8
370
    30
100
AcDbLine
 10
72.539671608
 20
9.8139619668
 30
0.0
 11
28.9111865413
 21
9.8139619668
 31
0.0
  0
LINE
  5
18A
330
1F
100
AcDbEntity
  8
0
  6
Continuous
 62
     8
370
    30
100
AcDbLine
 10
10.8711549946
 20
9.8139619668
 30
0.0
 11
6.9296711403
 21
9.8139619668
 31
0.0
  0
LINE
  5
18B
330
1F
100
AcDbEntity
  8
0
  6
Continuous
 62
     8
370
    30
100
AcDbLine
 10
6.9296711403
 20
44.9239618131
 30
0.0
 11
6.9296711403
 21
44.7221226514
 31
0.0
  0
LINE
  5
18C
330
1F
100
AcDbEntity
  8
0
  6
Continuous
 62
     8
370
    30
100
AcDbLine
 10
6.9348314007
 20
9.9389615895
 30
0.0
 11
72.539671608
 21
9.9389615895
 31
0.0
  0
LINE
  5
18D
330
1F
100
AcDbEntity
  8
0
  6
Continuous
 62
     8
370
    30
100
AcDbLine
 10
28.8761869989
 20
51.1334774936
 30
0.0
 11
28.8761869989
 21
44.9939620711
 31
0.0
  0
LINE
  5
18E
330
1F
100
AcDbEntity
  8
0
  6
Continuous
 62
     8
370
    30
100
AcDbLine
 10
10.9061551236
 20
44.9939620711
 30
0.0
 11
10.9061551236
 21
51.1334774936
 31
0.0
  0
LINE
  5
18F
330
1F
100
AcDbEntity
  8
FORMAT
100
AcDbLine
 10
78.3360982937
 20
28.5721408743
 30
0.0
 11
78.3360982937
 21
26.4577164401
 31
0.0
  0
LINE
  5
190
330
1F
100
AcDbEntity
  8
FORMAT
100
AcDbLine
 10
78.3360982937
 20
26.4577164401
 30
0.0
 11
81.2336428887
 21
26.4577164401
 31
0.0
  0
LINE
  5
191
330
1F
100
AcDbEntity
  8
FORMAT
100
AcDbLine
 10
81.2336428887
 20
26.4577164401
 30
0.0
 11
81.2336428887
 21
24.6956960783
 31
0.0
  0
LINE
  5
192
330
1F
100
AcDbEntity
  8
FORMAT
100
AcDbLine
 10
81.2336428887
 20
24.6956960783
 30
0.0
 11
84.0528754677
 21
27.5149286572
 31
0.0
  0
LINE
  5
193
330
1F
100
AcDbEntity
  8
FORMAT
100
AcDbLine
 10
84.0528754677
 20
27.5149286572
 30
0.0
 11
81.2336428887
 21
30.3341612362
 31
0.0
  0
LINE
  5
194
330
1F
100
AcDbEntity
  8
FORMAT
100
AcDbLine
 10
81.2336428887
 20
30.3341612362
 30
0.0
 11
81.2336428887
 21
28.5721408743
 31
0.0
  0
LINE
  5
195
330
1F
100
AcDbEntity
  8
FORMAT
100
AcDbLine
 10
81.2336428887
 20
28.5721408743
 30
0.0
 11
78.3360982937
 21
28.5721408743
 31
0.0
  0
ENDSEC
  0
SECTION
  2
OBJECTS
  0
DICTIONARY
  5
C
330
0
100
AcDbDictionary
281
     1
  3
ACAD_GROUP
350
D
  3
ACAD_LAYOUT
350
1A
  3
ACAD_MLINESTYLE
350
17
  3
ACAD_PLOTSETTINGS
350
19
  3
ACAD_PLOTSTYLENAME
350
E
  3
ACAD_SCALELIST
350
4C
  3
AcDbVariableDictionary
350
196
  0
DICTIONARY
  5
D
102
{ACAD_REACTORS
330
C
102
}
330
C
100
AcDbDictionary
281
     1
  0
DICTIONARY
  5
1A
102
{ACAD_REACTORS
330
C
102
}
330
C
100
AcDbDictionary
281
     1
  3
Layout1
350
1E
  3
Layout2
350
26
  3
Model
350
22
  0
DICTIONARY
  5
17
102
{ACAD_REACTORS
330
C
102
}
330
C
100
AcDbDictionary
281
     1
  3
Standard
350
18
  0
DICTIONARY
  5
19
102
{ACAD_REACTORS
330
C
102
}
330
C
100
AcDbDictionary
281
     1
  0
ACDBDICTIONARYWDFLT
  5
E
102
{ACAD_REACTORS
330
C
102
}
330
C
100
AcDbDictionary
281
     1
  3
Normal
350
F
100
AcDbDictionaryWithDefault
340
F
  0
DICTIONARY
  5
4C
102
{ACAD_REACTORS
330
C
102
}
330
C
100
AcDbDictionary
281
     1
  3
A0
350
4D
  3
A1
350
4E
  3
A2
350
4F
  3
A3
350
50
  3
A4
350
51
  3
A5
350
52
  3
A6
350
53
  3
A7
350
54
  3
A8
350
55
  3
A9
350
56
  3
B0
350
57
  3
B1
350
58
  3
B2
350
59
  3
B3
350
5A
  3
B4
350
5B
  3
B5
350
5C
  3
B6
350
5D
  3
B7
350
5E
  3
B8
350
5F
  3
B9
350
60
  3
C0
350
61
  3
C1
350
62
  3
C2
350
63
  3
C3
350
64
  3
C4
350
65
  3
C5
350
66
  3
C6
350
67
  3
C7
350
68
  3
C8
350
69
  3
C9
350
6A
  3
D0
350
6B
  3
D1
350
6C
  3
D2
350
6D
  0
DICTIONARY
  5
196
102
{ACAD_REACTORS
330
C
102
}
330
C
100
AcDbDictionary
281
     1
  3
CANNOSCALE
350
197
  0
LAYOUT
  5
1E
102
{ACAD_REACTORS
330
1A
102
}
330
1A
100
AcDbPlotSettings
  1

  2
none_device
  4

  6

 40
0.0
 41
0.0
 42
0.0
 43
0.0
 44
0.0
 45
0.0
 46
0.0
 47
0.0
 48
0.0
 49
0.0
140
0.0
141
0.0
142
1.0
143
1.0
 70
   688
 72
     0
 73
     0
 74
     5
  7

 75
    16
147
1.0
148
0.0
149
0.0
100
AcDbLayout
  1
Layout1
 70
     1
 71
     1
 10
0.0
 20
0.0
 11
12.0
 21
9.0
 12
0.0
 22
0.0
 32
0.0
 14
1.0000000000E+20
 24
1.0000000000E+20
 34
1.0000000000E+20
 15
-1.0000000000E+20
 25
-1.0000000000E+20
 35
-1.0000000000E+20
146
0.0
 13
0.0
 23
0.0
 33
0.0
 16
1.0
 26
0.0
 36
0.0
 17
0.0
 27
1.0
 37
0.0
 76
     0
330
1B
  0
LAYOUT
  5
26
102
{ACAD_REACTORS
330
1A
102
}
330
1A
100
AcDbPlotSettings
  1

  2
none_device
  4

  6

 40
0.0
 41
0.0
 42
0.0
 43
0.0
 44
0.0
 45
0.0
 46
0.0
 47
0.0
 48
0.0
 49
0.0
140
0.0
141
0.0
142
1.0
143
1.0
 70
   688
 72
     0
 73
     0
 74
     5
  7

 75
    16
147
1.0
148
0.0
149
0.0
100
AcDbLayout
  1
Layout2
 70
     1
 71
     2
 10
0.0
 20
0.0
 11
0.0
 21
0.0
 12
0.0
 22
0.0
 32
0.0
 14
0.0
 24
0.0
 34
0.0
 15
0.0
 25
0.0
 35
0.0
146
0.0
 13
0.0
 23
0.0
 33
0.0
 16
1.0
 26
0.0
 36
0.0
 17
0.0
 27
1.0
 37
0.0
 76
     0
330
23
  0
LAYOUT
  5
22
102
{ACAD_REACTORS
330
1A
102
}
330
1A
100
AcDbPlotSettings
  1

  2
none_device
  4

  6

 40
0.0
 41
0.0
 42
0.0
 43
0.0
 44
0.0
 45
0.0
 46
0.0
 47
0.0
 48
0.0
 49
0.0
140
0.0
141
0.0
142
1.0
143
1.0
 70
  1712
 72
     0
 73
     0
 74
     0
  7

 75
     0
147
1.0
148
0.0
149
0.0
100
AcDbLayout
  1
Model
 70
     1
 71
     0
 10
0.0
 20
0.0
 11
85.0
 21
55.0
 12
0.0
 22
0.0
 32
0.0
 14
0.0
 24
0.0
 34
0.0
 15
85.0
 25
55.0
 35
0.0
146
0.0
 13
0.0
 23
0.0
 33
0.0
 16
1.0
 26
0.0
 36
0.0
 17
0.0
 27
1.0
 37
0.0
 76
     0
330
1F
331
29
  0
MLINESTYLE
  5
18
102
{ACAD_REACTORS
330
17
102
}
330
17
100
AcDbMlineStyle
  2
Standard
 70
     0
  3

 62
   256
 51
90.0
 52
90.0
 71
     2
 49
0.5
 62
   256
  6
BYLAYER
 49
-0.5
 62
   256
  6
BYLAYER
  0
ACDBPLACEHOLDER
  5
F
102
{ACAD_REACTORS
330
E
102
}
330
E
  0
SCALE
  5
4D
102
{ACAD_REACTORS
330
4C
102
}
330
4C
100
AcDbScale
 70
     0
300
1:1
140
1.0
141
1.0
290
     1
  0
SCALE
  5
4E
102
{ACAD_REACTORS
330
4C
102
}
330
4C
100
AcDbScale
 70
     0
300
1:2
140
1.0
141
2.0
290
     0
  0
SCALE
  5
4F
102
{ACAD_REACTORS
330
4C
102
}
330
4C
100
AcDbScale
 70
     0
300
1:4
140
1.0
141
4.0
290
     0
  0
SCALE
  5
50
102
{ACAD_REACTORS
330
4C
102
}
330
4C
100
AcDbScale
 70
     0
300
1:5
140
1.0
141
5.0
290
     0
  0
SCALE
  5
51
102
{ACAD_REACTORS
330
4C
102
}
330
4C
100
AcDbScale
 70
     0
300
1:8
140
1.0
141
8.0
290
     0
  0
SCALE
  5
52
102
{ACAD_REACTORS
330
4C
102
}
330
4C
100
AcDbScale
 70
     0
300
1:10
140
1.0
141
10.0
290
     0
  0
SCALE
  5
53
102
{ACAD_REACTORS
330
4C
102
}
330
4C
100
AcDbScale
 70
     0
300
1:16
140
1.0
141
16.0
290
     0
  0
SCALE
  5
54
102
{ACAD_REACTORS
330
4C
102
}
330
4C
100
AcDbScale
 70
     0
300
1:20
140
1.0
141
20.0
290
     0
  0
SCALE
  5
55
102
{ACAD_REACTORS
330
4C
102
}
330
4C
100
AcDbScale
 70
     0
300
1:30
140
1.0
141
30.0
290
     0
  0
SCALE
  5
56
102
{ACAD_REACTORS
330
4C
102
}
330
4C
100
AcDbScale
 70
     0
300
1:40
140
1.0
141
40.0
290
     0
  0
SCALE
  5
57
102
{ACAD_REACTORS
330
4C
102
}
330
4C
100
AcDbScale
 70
     0
300
1:50
140
1.0
141
50.0
290
     0
  0
SCALE
  5
58
102
{ACAD_REACTORS
330
4C
102
}
330
4C
100
AcDbScale
 70
     0
300
1:100
140
1.0
141
100.0
290
     0
  0
SCALE
  5
59
102
{ACAD_REACTORS
330
4C
102
}
330
4C
100
AcDbScale
 70
     0
300
2:1
140
2.0
141
1.0
290
     0
  0
SCALE
  5
5A
102
{ACAD_REACTORS
330
4C
102
}
330
4C
100
AcDbScale
 70
     0
300
4:1
140
4.0
141
1.0
290
     0
  0
SCALE
  5
5B
102
{ACAD_REACTORS
330
4C
102
}
330
4C
100
AcDbScale
 70
     0
300
8:1
140
8.0
141
1.0
290
     0
  0
SCALE
  5
5C
102
{ACAD_REACTORS
330
4C
102
}
330
4C
100
AcDbScale
 70
     0
300
10:1
140
10.0
141
1.0
290
     0
  0
SCALE
  5
5D
102
{ACAD_REACTORS
330
4C
102
}
330
4C
100
AcDbScale
 70
     0
300
100:1
140
100.0
141
1.0
290
     0
  0
SCALE
  5
5E
102
{ACAD_REACTORS
330
4C
102
}
330
4C
100
AcDbScale
 70
     0
300
1/128" = 1'-0"
140
0.0078125
141
12.0
290
     0
  0
SCALE
  5
5F
102
{ACAD_REACTORS
330
4C
102
}
330
4C
100
AcDbScale
 70
     0
300
1/64" = 1'-0"
140
0.015625
141
12.0
290
     0
  0
SCALE
  5
60
102
{ACAD_REACTORS
330
4C
102
}
330
4C
100
AcDbScale
 70
     0
300
1/32" = 1'-0"
140
0.03125
141
12.0
290
     0
  0
SCALE
  5
61
102
{ACAD_REACTORS
330
4C
102
}
330
4C
100
AcDbScale
 70
     0
300
1/16" = 1'-0"
140
0.0625
141
12.0
290
     0
  0
SCALE
  5
62
102
{ACAD_REACTORS
330
4C
102
}
330
4C
100
AcDbScale
 70
     0
300
3/32" = 1'-0"
140
0.09375
141
12.0
290
     0
  0
SCALE
  5
63
102
{ACAD_REACTORS
330
4C
102
}
330
4C
100
AcDbScale
 70
     0
300
1/8" = 1'-0"
140
0.125
141
12.0
290
     0
  0
SCALE
  5
64
102
{ACAD_REACTORS
330
4C
102
}
330
4C
100
AcDbScale
 70
     0
300
3/16" = 1'-0"
140
0.1875
141
12.0
290
     0
  0
SCALE
  5
65
102
{ACAD_REACTORS
330
4C
102
}
330
4C
100
AcDbScale
 70
     0
300
1/4" = 1'-0"
140
0.25
141
12.0
290
     0
  0
SCALE
  5
66
102
{ACAD_REACTORS
330
4C
102
}
330
4C
100
AcDbScale
 70
     0
300
3/8" = 1'-0"
140
0.375
141
12.0
290
     0
  0
SCALE
  5
67
102
{ACAD_REACTORS
330
4C
102
}
330
4C
100
AcDbScale
 70
     0
300
1/2" = 1'-0"
140
0.5
141
12.0
290
     0
  0
SCALE
  5
68
102
{ACAD_REACTORS
330
4C
102
}
330
4C
100
AcDbScale
 70
     0
300
3/4" = 1'-0"
140
0.75
141
12.0
290
     0
  0
SCALE
  5
69
102
{ACAD_REACTORS
330
4C
102
}
330
4C
100
AcDbScale
 70
     0
300
1" = 1'-0"
140
1.0
141
12.0
290
     0
  0
SCALE
  5
6A
102
{ACAD_REACTORS
330
4C
102
}
330
4C
100
AcDbScale
 70
     0
300
1-1/2" = 1'-0"
140
1.5
141
12.0
290
     0
  0
SCALE
  5
6B
102
{ACAD_REACTORS
330
4C
102
}
330
4C
100
AcDbScale
 70
     0
300
3" = 1'-0"
140
3.0
141
12.0
290
     0
  0
SCALE
  5
6C
102
{ACAD_REACTORS
330
4C
102
}
330
4C
100
AcDbScale
 70
     0
300
6" = 1'-0"
140
6.0
141
12.0
290
     0
  0
SCALE
  5
6D
102
{ACAD_REACTORS
330
4C
102
}
330
4C
100
AcDbScale
 70
     0
300
1'-0" = 1'-0"
140
12.0
141
12.0
290
     0
  0
DICTIONARYVAR
  5
197
102
{ACAD_REACTORS
330
196
102
}
330
196
100
DictionaryVariables
280
     0
  1
1:1
  0
ENDSEC
  0
EOF
